Guitar Tabs for Super Mario Theme Game Superbros

E|-----------------------------
B|--5--5--5--------5--8--------
G|--------------5--------------
D|--------------------------5--
A|-----------------------------
E|-----------------------------

E|--------------------------------------------------------------------
B|-----------------------------------5--8---8/10-6--8--5--------------
G|--5--------------4-----------------------------------------5--7--4--
D|-----5-----7-----------8--7-----5-----------------------------------
A|--------7-----------------------------------------------------------
E|--------------------------------------------------------------------

E|--------------------------------------------------------------------
B|-----------------------------------5--8---8/10-6--8--5--------------
G|--5--------------4-----------------------------------------5--7--4--
D|-----5-----7-----------8--7-----5-----------------------------------
A|--------7-----------------------------------------------------------
E|--------------------------------------------------------------------

E|--------------------------------------------------------------------
B|--8--7--6-----5--------------------------8--7--6-----5---5/13-13-13-
G|-----------8--------------5-----5--7--------------8-----------------
D|--------------------6--7-----7--------------------------------------
A|--------------------------------------------------------------------
E|--------------------------------------------------------------------

E|--------------------------------------------------------------------
B|--8--7--6-----5-----------------------------------------------------
G|-----------8--------------5-----5--7--------8-----7-----5-----------
D|--------------------6--7-----7--------------------------------------
A|--------------------------------------------------------------------
E|--------------------------------------------------------------------

E|--------------------------------------------------------------------
B|--8--7--6-----5--------------------------8--7--6-----5---5/13-13-13-
G|-----------8--------------5-----5--7--------------8-----------------
D|--------------------6--7-----7--------------------------------------
A|--------------------------------------------------------------------
E|--------------------------------------------------------------------

E|--------------------------------------------------------------------
B|--8--7--6-----5-----------------------------------------------------
G|-----------8--------------5-----5--7--------8-----7-----5-----------
D|--------------------6--7-----7--------------------------------------
A|--------------------------------------------------------------------
E|--------------------------------------------------------------------

E|--------------------------------------------------------
B|-----------------5--------------------------------5-----
G|--5--5--5--5--7-----5--------------5--5--5--5--7--------
D|--------------------------7--5--------------------------
A|--------------------------------------------------------
E|--------------------------------------------------------

E|-----------------------------
B|-----------------5-----------
G|--5--5--5--5--7-----5--------
D|-----------------------7--5--
A|-----------------------------
E|-----------------------------

E|-----------------------------
B|--5--5--5--------5--8--------
G|--------------5--------------
D|--------------------------5--
A|-----------------------------
E|-----------------------------

E|--------------------------------------------------------------------
B|-----------------------------------5--8---8/10-6--8--5--------------
G|--5--------------4-----------------------------------------5--7--4--
D|-----5-----7-----------8--7-----5-----------------------------------
A|--------7-----------------------------------------------------------
E|--------------------------------------------------------------------

E|--------------------------------------------------------------------
B|-----------------------------------5--8---8/10-6--8--5--------------
G|--5--------------4-----------------------------------------5--7--4--
D|-----5-----7-----------8--7-----5-----------------------------------
A|--------7-----------------------------------------------------------
E|--------------------------------------------------------------------

E|-----------------------------------------------------------------
B|--5-----------------6--6--------0--10-10-10-8--6--5--------------
G|-----5-----------------------------------------------5-----------
D|--------5--6--7--------------7-----------------------------7--5--
A|-----------------------------------------------------------------
E|-----------------------------------------------------------------

E|-----------------------------------------------------------
B|--5-----------------6--6--------0--6--6--6--5--------------
G|-----5-----------------------------------------7--5--------
D|--------5--6--7--------------7-----------------------------
A|-----------------------------------------------------------
E|-----------------------------------------------------------

E|-----------------------------------------------------------------
B|--5-----------------6--6--------0--10-10-10-8--6--5--------------
G|-----5-----------------------------------------------5-----------
D|--------5--6--7--------------7-----------------------------7--5--
A|-----------------------------------------------------------------
E|-----------------------------------------------------------------

E|-----------------------------------------------------------
B|--5-----------------6--6--------0--6--6--6--5--------------
G|-----5-----------------------------------------7--5--------
D|--------5--6--7--------------7-----------------------------
A|-----------------------------------------------------------
E|-----------------------------------------------------------

E|-----------------------------------------------------
B|-----------------5--------------------------------5--
G|--5--5--5--5--7-----5--------------5--5--5--5--7-----
D|--------------------------7--5-----------------------
A|-----------------------------------------------------
E|-----------------------------------------------------

E|-----------------------------
B|--5--5--5--------5--8--------
G|--------------5--------------
D|--------------------------5--
A|-----------------------------
E|-----------------------------

E|-----------------------------------------------------
B|-----------------5--------------------------------5--
G|--5--5--5--5--7-----5--------------5--5--5--5--7-----
D|--------------------------7--5-----------------------
A|-----------------------------------------------------
E|-----------------------------------------------------

E|-----------------------------
B|--5--5--5--------5--8--------
G|--------------5--------------
D|--------------------------5--
A|-----------------------------
E|-----------------------------

E|-----------------------------
B|--5--5--5--------5--8--------
G|--------------5--------------
D|--------------------------5--
A|-----------------------------
E|-----------------------------
tabs and chords, guitar tabs, music transcription, music technology, deep learning, music information retrieval, transcribe into tabs & chords, chordify, music renditions, songsterr, reverbnation, tabulature, bollywood chords, ultimate guitar, yousician, guitar lessons, acoustic guitar, electric guitar, guitar tuner, 911 tabs