Guitar Tabs for Monkey Wrench

Drop D tunning (DADG)
h:hammer on
Intro:
G:---------------------------------------------------------------
D:-------------------------4-4-4-4-2-2-2-2-2-2-2-2-2-2-2-2-0-2-0-
A:-2-2-2-2-2-2-2-2-2-2-2-2---------------------------------------
D:---------------------------------------------------------------
Pre-Chorus:
G:-------------------------
D:-------------------------
A:-------------------------
D:-2-2-0-2-2---2-0-2-0-2-0-
Chorus:
G:----------------------------------------------------
D:-----------4h6--6--6--4-----------------------------
A:-2-2---4h6----------------------------------------3-
D:-------------------------4--2--2-2-2---4-2-2--4-2---
Bridge:
G:---------------------------------------------
D:---------------------------------------------
A:----7----------------------------------------
D:-6-----7--5--5-5-5-5---4-2-2-2-2---4-2-2-2-2-
tabs and chords, guitar tabs, music transcription, music technology, deep learning, music information retrieval, transcribe into tabs & chords, chordify, music renditions, songsterr, reverbnation, tabulature, bollywood chords, ultimate guitar, yousician, guitar lessons, acoustic guitar, electric guitar, guitar tuner, 911 tabs