Guitar Tabs for Sunshine (in Case I Forget Hehe)

(/) Slide Up  (\) Slide Down  (h) Hammer On  (p) Pull Off  (b) Bend (r) Release (v) Vibrato (x) Muted

Tabs for Song : Sunshine (capo on 3) 
BPM : 200

Verse Lead 1st half  
E|--
B|--
G|--
D|--10--10--10-10-8-10--10-8--10--10-10-10--10--10--10-10-8-10--10-8--10--10-10-8/-3--3--3-3-3-3--3-3--3--3-3-3--(3--3--3-3-3-3--3-3--3--3-3-3)
A|--
E|--

Verse Rhythm 1st half  
E|--3--3--3-3-3-3--3-3--3--3-3-3--3--3--3-3-3-3--3-3--3--3-3-3/-3--3--3-3-3-3--3-3--3--3-3-3--(3--3--3-3-3-3--3-3--3--3-3-3)
B|--3--3--3-3-3-6--6-6--3--3-6-3--3--3--3-3-3-6--6-6--3--3-6-3/-3--3--3-3-3-3--3-3--3--3-3-3--(3--3--3-3-3-3--3-3--3--3-3-3)
G|--3--3--3-3-3-3--3-3--3--3-3-3--3--3--3-3-3-3--3-3--3--3-3-3/-3--3--3-3-3-7--7-7--3--3-7-3--(3--3--3-3-3-7--7-7--3--3-7-3)
D|--5--5--5-5-5-5--5-5--5--5-5-5--5--5--5-5-5-5--5-5--5--5-5-5/-3--3--3-3-3-3--3-3--3--3-3-3--(3--3--3-3-3-3--3-3--3--3-3-3)
A|--6--6--6-6-6-6--6-6--6--6-6-6--6--6--6-6-6-6--6-6--6--6-6-6/-5--5--5-5-5-5--5-5--5--5-5-5--(5--5--5-5-5-5--5-5--5--5-5-5)
E|--3--3--3-3-3-3--3-3--3--3-3-3--3--3--3-3-3-3--3-3--3--3-3-3/-6--6--6-6-6-6--6-6--6--6-6-6--(6--6--6-6-6-6--6-6--6--6-6-6)

Verse Lead 2nd half
E|-----
B|-----
G|-12--
D|-----10--10--10-10-8-10--10-8--10--10-10-10--10--10--10-10-8-10--10-8--10--10-10-8/-3--3--3-3-3-3--3-3--3--3-3-3--(8--8--8-8-8-8--8-8--8--8-8-8)
A|-----
E|-----

Verse Rhythm 2nd half
E|--3--3--3-3-3-3--3-3--3--3-3-3--3--3--3-3-3-3--3-3--3--3-3-3/-3--3--3-3-3-3--3-3--3--3-3-3--(3--3--3-3-3-3--3-3--3--3-3-3)
B|--3--3--3-3-3-6--6-6--3--3-6-3--3--3--3-3-3-6--6-6--3--3-6-3/-3--3--3-3-3-3--3-3--3--3-3-3--(3--3--3-3-3-3--3-3--3--3-3-3)
G|--3--3--3-3-3-3--3-3--3--3-3-3--3--3--3-3-3-3--3-3--3--3-3-3/-3--3--3-3-3-7--7-7--3--3-7-3--(3--3--3-3-3-3--3-3--3--3-3-3)
D|--5--5--5-5-5-5--5-5--5--5-5-5--5--5--5-5-5-5--5-5--5--5-5-5/-3--3--3-3-3-3--3-3--3--3-3-3--(5--5--5-5-5-5--5-5--5--5-5-5)
A|--6--6--6-6-6-6--6-6--6--6-6-6--6--6--6-6-6-6--6-6--6--6-6-6/-5--5--5-5-5-5--5-5--5--5-5-5--(5--5--5-5-5-5--5-5--5--5-5-5)
E|--3--3--3-3-3-3--3-3--3--3-3-3--3--3--3-3-3-3--3-3--3--3-3-3/-6--6--6-6-6-6--6-6--6--6-6-6--(3--3--3-3-3-3--3-3--3--3-3-3)

Chorus Lead (Played twice)
E|--
B|--
G|--7--7--7-7-7-7-7-7-10--10-10--
D|--						   --8-10--10--10-10-10-10--8--3-3-3-8
A|--
E|--

Chorus Rhythm (played twice)
E|--5--5--5-5-5-5-5-5-10--10-10--10-
B|--							   -8-8--8--8-8-8-8--8--8-8-8-8
G|--5--5--5-5-5-5-5-5-10--10-10--10-
D|--							   -8-8--8--8-8-8-8--8--8-8-8-8
A|--
E|--

Chorus Bridge Lead (played 4 times)(outro played after 4th)
E|--
B|--					  (Bridge outro)
G|--		   10----7----(7-7-7-7-7-7-7-7)
D|--10----3----
A|--
E|--

Outro Bridge Lead (played twice)
E|--
B|--
G|--				  		  12--12-10--													  12--12-10--				 --7--7-7-7-
D|--10--10--10-10-10-10-10-10-		   --8--8--8-8-8-8--8--3--3-3-3-10--10--10-10-10-10-10-10-		   --8--8--8-8-8-8--8--
A|--
E|--



E|--
B|--
G|--
D|--
A|--
E|--


Use manual mode to free up cursor. Paste any tab in acousterr tab maker and we'll play it !!!
tabs and chords, guitar tabs, music transcription, music technology, deep learning, music information retrieval, transcribe into tabs & chords, chordify, music renditions, songsterr, reverbnation, tabulature, bollywood chords, ultimate guitar, yousician, guitar lessons, acoustic guitar, electric guitar, guitar tuner, 911 tabs