Guitar Tabs for Sunrise - Ryan Bingham

Intro X2
E|------------------------------------------------------------
B|---------------------------------------------------------9--
G|--2-----4-----6-----9------2-----4-----6-----8-----9-----9--
D|--2-----4-----6-----9------2-----4-----6-----8-----9-----7--
A|--------2-----4-----7------------2-----4-----6-----7--------
E|------------------------------------------------------------


Verse & Chorus
E|--------------------------------------------------------------------------------
B|--------------------------9-------------------------------------------9---------
G|--2-----4-----6-----9-----9-----9-----6-----2--2----4-----6-----9-----9-----9---
D|--2-----4-----6-----9-----7-----9-----6-----2--2----4-----6-----9-----7-----9---
A|--------2-----4-----7-----------7-----6-------------2-----4-----7-----------7---
E|--------------------------------------------------------------------------------

tabs and chords, guitar tabs, music transcription, music technology, deep learning, music information retrieval, transcribe into tabs & chords, chordify, music renditions, songsterr, reverbnation, tabulature, bollywood chords, ultimate guitar, yousician, guitar lessons, acoustic guitar, electric guitar, guitar tuner, 911 tabs