Guitar Tabs for Suno na sangemarmar

Tabs for Song : Suno Na Sangemarmar 

suno na sangemarmar
E|--------------1--------------
B|--1--1--3--4-----4--3--4-----
G|-----------------------------
D|-----------------------------
A|-----------------------------
E|-----------------------------

ki ye minaare
E|--------------------------
B|--4--3--1-----------1-----
G|-----------3--1--0--------
D|--------------------------
A|--------------------------
E|--------------------------

kuch bhi nahi hai 
E|--------------1--------------
B|--1--1--3--4-----4--3--4-----
G|-----------------------------
D|-----------------------------
A|-----------------------------
E|-----------------------------

aage tumhare
E|--------------------------
B|--4--3--1-----------1-----
G|-----------3--1--0--------
D|--------------------------
A|--------------------------
E|--------------------------

aaj is dil pe mere raaj tumahara
E|--------------------------------------------------
B|--------------------1--3--4--1--------------1-----
G|--3--3--1--0-----3--------------3--1--0--0--------
D|--------------3-----------------------------------
A|--------------------------------------------------
E|--------------------------------------------------

taj tumhara
E|-----------------------------
B|--0--1--3--1-----------------
G|--------------0--------0-----
D|-----------------1--3--------
A|-----------------------------
E|-----------------------------

suno na sangemarmar
E|--------------1--------------
B|--1--1--3--4-----4--3--4-----
G|-----------------------------
D|-----------------------------
A|-----------------------------
E|-----------------------------

ki ye minare
E|--------------------------
B|--4--3--1-----------1-----
G|-----------3--1--0--------
D|--------------------------
A|--------------------------
E|--------------------------



tabs and chords, guitar tabs, music transcription, music technology, deep learning, music information retrieval, transcribe into tabs & chords, chordify, music renditions, songsterr, reverbnation, tabulature, bollywood chords, ultimate guitar, yousician, guitar lessons, acoustic guitar, electric guitar, guitar tuner, 911 tabs