Bass Tabs for Sunday Rain

(/) Slide Up  (\) Slide Down  (h) Hammer On  (p) Pull Off  (b) Bend (r) Release (v) Vibrato (x) Muted 

G|-----------------------------------------------------------------------------
D|--------6-----------4---------------------------------------6h-8p-6h-8p6-----
A|-----6-----6-----4-----4-----------7-----------4--4---6/8-----------------8--
E|--4-----------2-----------0---0/7---------7\0--------------------------------

G|-----------------------------------------------------------------------
D|--------------------------------------------------------------------6--
A|-----------------------------------------------7-----------4---4/8-----
E|--4--4-----0--4--0--2--2-----0--2--0--0---0/7---------7\0--------------

Repeat the 2--4 until it changes
G|--------------------------------------------------------------------
D|--------------------------------------------------------------------
A|-----------------------------------4--------------------------------
E|--2--4-----2--4-----2--4-----2--4-----4--2--4--4--2--3--4-----2--4--

This comes before it goes to the Chorus
G|--------------------
D|--------------------
A|--------2---------4b
E|--2--4-----4--2-----

Bridge
G|--------------------------------------------------
D|--------------------------------------------------
A|--------------------------------------------2-----
E|--4-----4--4--4-----4--4--4-----4--4--4--------4--

G|--------------------------------------------------
D|--------------------------------------------------
A|--------------------------------------------------
E|--0-----0--0--0-----0--0--0-----0--0--0------0/7--

G|--------------------------------------------------
D|--------------------------------------------------
A|--------------------------------------------------
E|--7--4--7-----7--4--7-----2--2--2--3-----3--3--3--

G|-----------------------------------------------------------------------------------------------------
D|-----3--------------------------6--------------------3-----------------------------------------------
A|--4-----2--4-----4--2--4-----7-----5--7-----7-----4-----2--4-----4--2--4-----7--7--7--9-----9--9--9--
E|-----------------------------------------------------------------------------------------------------



tabs and chords, guitar tabs, music transcription, music technology, deep learning, music information retrieval, transcribe into tabs & chords, chordify, music renditions, songsterr, reverbnation, tabulature, bollywood chords, ultimate guitar, yousician, guitar lessons, acoustic guitar, electric guitar, guitar tuner, 911 tabs