Guitar Tabs for Sunday Night 1987

(/) Slide Up  (\) Slide Down  (h) Hammer On  (p) Pull Off  (b) Bend (r) Release (v) Vibrato (x) Muted

Tabs for Song : 

Song lyrics here
E|--------------------------------------------------------------------------------------------------------
B|--------------------------------------------------------------------------------------------15-16-18-16-
G|--------------------------------------------15-17h18-16----------------16/18-15----15-16-18-------------
D|--15----13----15-15h16p15-13-11----15-16-18-------------16-18/20-18-------------------------------------
A|--------------------------------------------------------------------------------------------------------
E|--------------------------------------------------------------------------------------------------------

Song lyrics here
E|--------------------
B|-----16----14-16p14-
G|--------------------
D|--------------------
A|--------------------
E|--------------------

Now supports capo and sound effects for vibrato/pull-off/hammer/bends/mutes etc !!! Checkout help section
tabs and chords, guitar tabs, music transcription, music technology, deep learning, music information retrieval, transcribe into tabs & chords, chordify, music renditions, songsterr, reverbnation, tabulature, bollywood chords, ultimate guitar, yousician, guitar lessons, acoustic guitar, electric guitar, guitar tuner, 911 tabs