Sunday Morning - Billy Hammer - Guitar Tabs

(/) Slide Up  (\) Slide Down  (h) Hammer On  (p) Pull Off  (b) Bend (r) Release (v) Vibrato (x) Muted

Tabs for Song : Sunday Morning by Billy Hammer

   Em7sus2                A7               Dmaj7sus2           Dmaj7
E|-------------------------------------------------------------------------------|
B|-----7--------------------5--------------------5-----------------7--------7----|
G|-----7--------------------6--------------------6-----------------6--------6----|
D|-----9--------------------5--------------------7-----------------7--------7----|
A|--7-----------------------7-----------------5-----------------5--------6-------|
E|-----------------------5-------------------------------------------------------|
   Em7sus2                A7                  Dmaj7
E|-------------------------------------------------------------5-----------------|
B|-----7--------------------5--------------------7-------------------7-----------|
G|-----7--------------------6--------------------6-------------------------6-----|
D|-----9--------------------5--------------------7-------------------------------|
A|--7-----------------------7-----------------5----------------------------------|
E|---------------------7\5-------------------------------------------------------|

Song lyrics here 
E|--
B|--
G|--
D|--
A|--
E|--

Use manual mode to free up cursor. Paste any tab in acousterr tab maker and we'll play it !!!
tabs and chords, guitar tabs, music transcription, music technology, deep learning, music information retrieval, transcribe into tabs & chords, chordify, music renditions, songsterr, reverbnation, tabulature, bollywood chords, ultimate guitar, yousician, guitar lessons, acoustic guitar, electric guitar, guitar tuner, 911 tabs