Summertime Sadness - Guitar Tabs

(/) Slide Up  (\) Slide Down  (h) Hammer On  (p) Pull Off  (b) Bend (r) Release (v) Vibrato (x) Muted

Tabs for Song : 

CAPO 2

 
E|--------------------------------2-----------------------------0-----0--------------------
B|--------------------------------3-----------------------------0-----0--------------------
G|--2-----4--4--4--4-----2-----4--4-----2--2--2--2--2-----2-----0-----0--------------------
D|--0-----0--0--0--0-----0-----4--------2--2--2--2--2-----0-----2-----2--------------------
A|-----------------------------2--------0--------------0--------2-----2--------------------
E|--3-----------------3-----------------------------------------0-----0--------------------

E|--------------------------------------------------------------------------------0--------
B|-----3-----3--3--3--3--3-----3--------------------------------------------------0--------
G|--4-----2--4--4--4--4--4-----2-----4-----------2--------2--2--2--2--2-----2-----0--------
D|-----------------------------------4-----4--4-----4-----2--2--2--2--2-----0-----2--------
A|-----------------------------------2-----2--2-----------0--------------0--------2--------
E|-----------3--------------3-----------------------------------------------------0--------

E|-----------------------------------------------------------0--0--0--------0--------------
B|--------3-----3--3--3--3--3-----3--------------------------2--2--2--------0--3-----------
G|--4--4-----2--4--4--4--4--4-----2-----4--------------------2--2--2--------0--------------
D|--------------------------------------4-----4--4---4p2-----2--------------2--------------
A|--------------------------------------2-----2--2---0p------0--------------2--------------
E|--------------3--------------3--------------------------------------0--------------------

















Use manual mode to free up cursor. Paste any tab in acousterr tab maker and we'll play it !!!

About Summertime Sadness : The pop ballad was released on June 22, 2012 by Interscope Records . Charting across Europe, the single reached the top ten in Austria, Bulgaria, Germany, Greece, Luxembourg and Switzerland . "Summertime Sadness" was released by Cedric Gervais in the summer of 2013 . The single debuted at 72 on the Billboard Hot 100 . It reached platinum status in Germany and became a top forty year-end hit . The song's accompanying music video depicts Del Rey and actress Jaime King as a couple . The video gained success on video-hosting website YouTube, and circulated through social media websites such as Facebook and Twitter . Critics lauded the single's artistry, comparing it to Instagram . It was released in 2012. It was released as part of album Born to Die. The genre is pop trip hop. The track was release in 2012. Summertime Sadness has a significant contribution from artist(s) Lana Del Rey. It is related to the album(s) - Born to Die.

About Lana Del Rey - Elizabeth Woolridge Grant is known as Lana Del Rey . Her music is noted for its stylized cinematic quality and its themes of tragic romance, glamour, and melancholia . She also references to pop culture, particularly 1950s and Del Rey's breakthrough came with the viral success of her debut single "Video Games" She signed with Intersope and Polydor later that year . Del Rey issued her third album, Ultraviolence (2014), to critical success . She recorded the eponymous theme for the drama film Big Eyes, which earned a Golden Globe nomination . Lana Del Rey's music is influenced by genre(s) - baroque pop dream pop rock.

tabs and chords, guitar tabs, music transcription, music technology, deep learning, music information retrieval, transcribe into tabs & chords, chordify, music renditions, songsterr, reverbnation, tabulature, bollywood chords, ultimate guitar, yousician, guitar lessons, acoustic guitar, electric guitar, guitar tuner, 911 tabs