Bass Tabs for Summer Of 69 Bass Tab

(/) Slide Up  (\) Slide Down  (h) Hammer On  (p) Pull Off  (b) Bend (r) Release (v) Vibrato (x) Muted

Tabs for Song : 
BPM : 200

Song lyrics here 
G|--------------------------------------------------------
D|--------------------------------------------------------
A|--10-12-12-12----2-----2-----2--0-----0--------0--2--4--
D|--------------------------------------------------------

G|--------------------------------------
D|--------------------------------------
A|--5-----5--------------------------0--
D|--------------0--4--0--5-----5--------

G|--------------------------------------------
D|-----------------------------------2--4--2--
A|--2-----2--------2--0-----0-----------------
D|--------------------------------------------

G|-----------------------------------------------------------------
D|-----------------------------------------------------------------
A|--5--5-----------------------------0-----2--2--------2--2--2--0--
D|-----------0--4--0-----5-----4--5--------------------------------

G|--------------------------------------------------
D|--------------------------------------------------
A|--------------------------------------------------
D|--0--0--0--0--0--0--0--0--0--0--0--0--0--0--0--3--

G|--------------------------------------------------
D|--------------------------------------------------
A|--------------------------------------------------
D|--7--7--7--7--7--7--7--7--7--7--7--7--7--7--7--7--

G|--------------------------------------------------
D|--------------------------------------------------
A|--------------------------------------------------
D|--0--0--0--0--0--0--0--0--0--0--0--0--0--0--0--3--

G|--------------------------------------------------
D|--------------------------------------------------
A|--------------------------------------------------
D|--7--7--7--7--7--7--7--7--7--7--7--7--7--7--7--7--

G|--------------------------------------------------
D|--------------------------------------------------
A|--------------------------------------------------
D|--0--0--0--0--0--0--0--0--0--0--0--0--0--0--0--0--

G|--------------------------------------------------------
D|--------------------------------------------------------
A|--------------------------------------------10-12-12-12-
D|--7--7--7--7--7--7--7--7--7--7--7--7--7--7--------------

G|--------------------------------------------
D|--------------------------------------------
A|--2-----2--------2--0-----0--------0--2--4--
D|--------------------------------------------

G|-----------------------------------
D|-----------------------------------
A|--5--5--------------------------0--
D|-----------0--4--0--5-----5--------

G|-----------------------------------------
D|--------------------------------2--4--2--
A|--2-----2-----2--0-----0-----------------
D|-----------------------------------------

G|-----------------------------------------------------------------
D|-----------------------------------------------------------------
A|--5-----5-----------------------------0-----2--2-----2--2--2--0--
D|--------------0--4--0-----5-----4--5-----------------------------

G|--------------------------------------------------
D|--------------------------------------------------
A|--------------------------------------------------
D|--0--0--0--0--0--0--0--0--0--0--0--0--0--0--0--3--

G|--------------------------------------------------
D|--------------------------------------------------
A|--------------------------------------------------
D|--7--7--7--7--7--7--7--7--7--7--7--7--7--7--7--7--

G|--------------------------------------------------
D|--------------------------------------------------
A|--------------------------------------------------
D|--0--0--0--0--0--0--0--0--0--0--0--0--0--0--0--3--

G|--------------------------------------------------
D|--------------------------------------------------
A|-----------------------------12-12-12-12-12-12-12-
D|--7--7--7--7--7--7--7--7--7-----------------------

G|--------------------------------------------------
D|--------------------------------------------------
A|-----------------------------1--------1--1-----1--
D|-----3--------3--3--------3-----------------------

G|-----------------------------------------------
D|-----------------------------------------------
A|-----3--------3--3-----3-----5-----5-----5--5--
D|-----------------------------------------------

G|--------------------------------------------------
D|--------------------------------------------------
A|-----------------------------1--------1--1-----1--
D|-----3--------3--3--------3-----------------------

G|-----------------------------------------
D|--------------------10-10-10-10-10-10-10-
A|-----3-----3--3--3-----------------------
D|-----------------------------------------

G|--------------------------------------------------
D|--------------------------------------------------
A|--------------------------------------------------
D|--0-----------------------------------------------

G|--------------------------------------------------
D|--------------------------------------------------
A|--------------------------------------------------
D|--7-----------------------------------------------

G|--------------------------------------------------
D|--------------------------------------------------
A|--------------------------------------------------
D|--0-----------------------------------------------

G|--------------------------------------------------
D|--------------------------------------------------
A|--------------------------------------------------
D|--7-----------------------------------------------

G|--------------------------------------------------
D|--------------------------------------------------
A|--------------------------------------------------
D|--0--0--0--0--0--0--0--0--0--0--0--0--0--0--0--3--

G|--------------------------------------------------
D|--------------------------------------------------
A|--------------------------------------------------
D|--7--7--7--7--7--7--7--7--7--7--7--7--7--7--7--7--

G|--------------------------------------------------
D|--------------------------------------------------
A|--------------------------------------------------
D|--0--0--0--0--0--0--0--0--0--0--0--0--0--0--0--3--

G|--------------------------------------------------------
D|--------------------------------------------------------
A|--------------------------------------------10-12-12-12-
D|--7--7--7--7--7--7--7--7--7--7--7--7--7--7--------------

G|-----------------------------------------------
D|-----------------------------------------------
A|-----2-----2--------2--0-----0--------0--2--4--
D|-----------------------------------------------

G|-----------------------------------------------
D|-----------------------------------------------
A|-----5-----5--------------------------------0--
D|--------------------0--4--0-----5-----5--------

G|-----------------------------------------------
D|--------------------------------------2--4--2--
A|-----2-----2--------2--0-----0-----------------
D|-----------------------------------------------

G|-----------------------------------------------
D|-----------------------------------------------
A|-----5-----5--------------------------------0--
D|--------------------0--4--0-----5-----4--5-----

G|-----------------------------------------------
D|-----------------------------------------------
A|--2-----2--------2--2--2--0--------------------
D|-----------------------------------------------

G|--------------------------------------------------
D|--------------------------------------------------
A|--------------------------------------------------
D|--0--0--0--0--0--0--0--0--0--0--0--0--0--0--0--3--

G|--------------------------------------------------
D|--------------------------------------------------
A|--------------------------------------------------
D|--7--7--7--7--7--7--7--7--7--7--7--7--7--7--7--7--

G|--------------------------------------------------
D|--------------------------------------------------
A|--------------------------------------------------
D|--0--0--0--0--0--0--0--0--0--0--0--0--0--0--0--3--

G|--------------------------------------------------
D|--------------------------------------------------
A|--------------------------------------------------
D|--7--7--7--7--7--7--7--7--7--7--7--7--7--7--7--7--

G|--------------------------------------------------
D|--------------------------------------------------
A|--------------------------------------------------
D|--0--0--0--0--0--0--0--0--0--0--0--0--0--0--0--3--

G|--------------------------------------------------
D|--------------------------------------------------
A|--------------------------------------------------
D|--7--7--7--7--7--7--7--7--7--7--7--7--7--7--7--7--

G|--------------------------------------------------
D|--------------------------------------------------
A|--------------------------------------------------
D|--0--0--0--0--0--0--0--0--0--0--0--0--0--0--0--0--

Song lyrics here 
G|--
D|--
A|--
D|--

Use manual mode to free up cursor. Paste any tab in acousterr tab maker and we'll play it !!!
tabs and chords, guitar tabs, music transcription, music technology, deep learning, music information retrieval, transcribe into tabs & chords, chordify, music renditions, songsterr, reverbnation, tabulature, bollywood chords, ultimate guitar, yousician, guitar lessons, acoustic guitar, electric guitar, guitar tuner, 911 tabs