Guitar Tabs for Summer Of '69 Intro

(/) Slide Up  (\) Slide Down  (h) Hammer On  (p) Pull Off  (b) Bend (r) Release (v) Vibrato

Tabs for Song : Summer of 69 Intro

Just Play Dsus2 ,D and Dsus4
E|--0--------2--------3--------2--------0-----2-----
B|-----3--------3--------3--------3-----------------
G|--------2--------2--------2--------2-----2-----2--
D|--------------------------------------------------
A|--------------------------------------------------
E|--------------------------------------------------

Play Asus2, A and Asus4
E|--------------------------------------------------
B|--0--------2--------3--------2--------0-----2-----
G|-----2--------2--------2--------2-----------------
D|--------2--------2--------2--------2-----2-----2--
A|--------------------------------------------------
E|--------------------------------------------------

Now supports capo and sound effects for vibrato/pull-off/hammer/bends etc !!! Checkout help section
tabs and chords, guitar tabs, music transcription, music technology, deep learning, music information retrieval, transcribe into tabs & chords, chordify, music renditions, songsterr, reverbnation, tabulature, bollywood chords, ultimate guitar, yousician, guitar lessons, acoustic guitar, electric guitar, guitar tuner, 911 tabs