Summer In The City - Loving Spoonful - Guitar Tabs

Guitar
    
                                                                                                                                                                                                                                                                                                                                                                                                                                                                                                                                                                                                                                                                                                                                                                                                                                                                                                                                                                                                                                                                                                                                                                                              
E|-------------------------|------------3--------3-------|
B|-------------------------|4-----4--4--4--------4--4----|
G|-------------------------|5-----5--5-----------3--3--3-|
D|-------------------------|5--5--5--------------5-----5-|
A|-------------------------|3--3--3----------------------|
E|--4-----3-----x----------|---------------6--6----------|

    
                                                                                                                                                                                                                                                                                                                                                                                                                                                                                                                                                                                                                                                                                                                                                                                                                                                                                                                                                                                                                                                                                                                                                                                              
E|--------3-----3--3--3--3--3--3--3--3--3-|------------3--------3-------|
B|--------4-----4--4--4--4--4--4--4--4--4-|4-----4--4--4--------4--4----|
G|--------5--5-----5--5--5--5--5--5--5--5-|5-----5--5-----------3--3--3-|
D|--3--3--3--3-----6--6--6--5--5--5--5--5-|5--5--5--------------5-----5-|
A|--0--0----------------------------------|3--3--3----------------------|
E|----------------------------------------|---------------6--6----------|

    
                                                                                                                                                                                                                                                                                                                                                                                                                                                                                                                                                                                                                                                                                                                                                                                                                                                                                                                                                                                                                                                                                                                                                                                              
E|--------3-----3--3--3--3--3--3--3--3--3-|3-----3-----3-----3----|
B|--------4-----4--4--4--4--4--4--4--4--4-|3-----3-----6-----6----|
G|--------5--5-----5--5--5--5--5--5--5--5-|4-----4-----4-----4----|
D|--3--3--3--3-----6--6--6--5--5--5--5--5-|-----------------------|
A|--0--0----------------------------------|---5-----5-----5-----5-|
E|----------------------------------------|---3-----3-----3-----3-|

    
                                                                                                                                                                                                                                                                                                                                                                                                                                                                                                                                                                                                                                                                                                                                                                                                                                                                                                                                                                                                                                                                                                                                                                                              
E|--3-----3-----3-----3----|1-----1----------------|
B|--4-----4-----5-----5----|1-----3----------------|
G|--5-----5-----5-----5----|2-----3----------------|
D|-----5-----5-----5-----5-|3-----3----------------|
A|-----3-----3-----3-----3-|3-----1----------------|
E|-------------------------|1----------------------|

    
                                                                                                                                                                                                                                                                                                                                                                                                                                                                                                                                                                                                                                                                                                                                                                                                                                                                                                                                                                                                                                                                                                                                                                                              
E|--1-----1----------------|1-----1----------------|
B|--1-----3----------------|1-----3----------------|
G|--2-----3----------------|2-----3----------------|
D|--3-----3----------------|3-----3----------------|
A|--3-----1----------------|3-----1----------------|
E|--1----------------------|1----------------------|

    
                                                                                                                                                                                                                                                                                                                                                                                                                                                                                                                                                                                                                                                                                                                                                                                                                                                                                                                                                                                                                                                                                                                                                                                              
E|--1-----1----------------|1-----3----------------|
B|--1-----3----------------|3-----3----------------|
G|--2-----3----------------|2-----0----------------|
D|--3-----3----------------|0-----0----------------|
A|--3-----1----------------|------2----------------|
E|--1----------------------|------3----------------|

    
                                                                                                                                                                                                                                                                                                                                                                                                                                                                                                                                                                                                                                                                                                                                                                                                                                                                                                                                                                                                                                                                                                                                                                                              
E|--1-----3----------------|1-----3----------------|
B|--3-----3----------------|3-----3----------------|
G|--2-----0----------------|2-----0----------------|
D|--0-----0----------------|0-----0----------------|
A|--------2----------------|------2----------------|
E|--------3----------------|------3----------------|

    
                                                                                                                                                                                                                                                                                                                                                                                                                                                                                                                                                                                                                                                                                                                                                                                                                                                                                                                                                                                                                                                                                                                                                                                              
E|--1-----3----------------|------------3--------3-------|
B|--3-----3----------------|4-----4--4--4--------4--4----|
G|--2-----0----------------|5-----5--5-----------3--3--3-|
D|--0-----0----------------|5--5--5--------------5-----5-|
A|--------2----------------|3--3--3----------------------|
E|--------3----------------|---------------6--6----------|

    
                                                                                                                                                                                                                                                                                                                                                                                                                                                                                                                                                                                                                                                                                                                                                                                                                                                                                                                                                                                                                                                                                                                                                                                              
E|--------3-----3--3--3--3--3--3--3--3--3-|------------3--------3-------|
B|--------4-----4--4--4--4--4--4--4--4--4-|4-----4--4--4--------4--4----|
G|--------5--5-----5--5--5--5--5--5--5--5-|5-----5--5-----------3--3--3-|
D|--3--3--3--3-----6--6--6--5--5--5--5--5-|5--5--5--------------5-----5-|
A|--0--0----------------------------------|3--3--3----------------------|
E|----------------------------------------|---------------6--6----------|

    
                                                                                                                                                                                                                                                                                                                                                                                                                                                                                                                                                                                                                                                                                                                                                                                                                                                                                                                                                                                                                                                                                                                                                                                              
E|--------3-----3--3--3--3--3--3--3--3--3-|3-----3-----3-----3----|
B|--------4-----4--4--4--4--4--4--4--4--4-|3-----3-----6-----6----|
G|--------5--5-----5--5--5--5--5--5--5--5-|4-----4-----4-----4----|
D|--3--3--3--3-----6--6--6--5--5--5--5--5-|-----------------------|
A|--0--0----------------------------------|---5-----5-----5-----5-|
E|----------------------------------------|---3-----3-----3-----3-|

    
                                                                                                                                                                                                                                                                                                                                                                                                                                                                                                                                                                                                                                                                                                                                                                                                                                                                                                                                                                                                                                                                                                                                                                                              
E|--3-----3-----3-----3----|1-----1----------------|
B|--4-----4-----5-----5----|1-----3----------------|
G|--5-----5-----5-----5----|2-----3----------------|
D|-----5-----5-----5-----5-|3-----3----------------|
A|-----3-----3-----3-----3-|3-----1----------------|
E|-------------------------|1----------------------|

    
                                                                                                                                                                                                                                                                                                                                                                                                                                                                                                                                                                                                                                                                                                                                                                                                                                                                                                                                                                                                                                                                                                                                                                                              
E|--1-----1----------------|1-----1----------------|
B|--1-----3----------------|1-----3----------------|
G|--2-----3----------------|2-----3----------------|
D|--3-----3----------------|3-----3----------------|
A|--3-----1----------------|3-----1----------------|
E|--1----------------------|1----------------------|

    
                                                                                                                                                                                                                                                                                                                                                                                                                                                                                                                                                                                                                                                                                                                                                                                                                                                                                                                                                                                                                                                                                                                                                                                              
E|--1-----1----------------|1-----3----------------|
B|--1-----3----------------|3-----3----------------|
G|--2-----3----------------|2-----0----------------|
D|--3-----3----------------|0-----0----------------|
A|--3-----1----------------|------2----------------|
E|--1----------------------|------3----------------|

    
                                                                                                                                                                                                                                                                                                                                                                                                                                                                                                                                                                                                                                                                                                                                                                                                                                                                                                                                                                                                                                                                                                                                                                                              
E|--1-----3----------------|1-----3----------------|
B|--3-----3----------------|3-----3----------------|
G|--2-----0----------------|2-----0----------------|
D|--0-----0----------------|0-----0----------------|
A|--------2----------------|------2----------------|
E|--------3----------------|------3----------------|

    
                                                                                                                                                                                                                                                                                                                                                                                                                                                                                                                                                                                                                                                                                                                                                                                                                                                                                                                                                                                                                                                                                                                                                                                              
E|--1-----3----------------|--------------------------------|
B|--3-----3----------------|--------------------------------|
G|--2-----0----------------|--------------------------------|
D|--0-----0----------------|5-----3--------3-----5--3-----3-|
A|--------2----------------|------------6--------------6----|
E|--------3----------------|--------------------------------|

    
                                                                                                                                                                                                                                                                                                                                                                                                                                                                                                                                                                                                                                                                                                                                                                                                                                                                                                                                                                                                                                                                                                                                                                                              
E|----------------------------------|--------------------------------|
B|----------------------------------|--------------------------------|
G|----------------------------------|--------------------------------|
D|--6-----4--------4-----6--4-----4-|5-----3--------3-----5--3-----3-|
A|--------------6--------------6----|------------6--------------6----|
E|----------------------------------|--------------------------------|

    
                                                                                                                                                                                                                                                                                                                                                                                                                                                                                                                                                                                                 
E|----------------------------------|
B|----------------------------------|
G|----------------------------------|
D|--6-----4--------4-----6--4-----4-|
A|--------------6--------------6----|
E|----------------------------------|

    
                                                                                                                                                                                                                                                                                                                                                                                                                                                                                                                                                                                                 
E|-------------------------------|
B|--------x--x--4--x--x--3-------|
G|--------x--x--5--x--x--4-------|
D|--------x--x--6--x--x--5-------|
A|--------x--x-----x--x----------|
E|-------------------------------|

    
                                                                                                                                                                                                                                                                                                                                                                                                                                                                                                                                                                                                                                                                                                                                                                                                                                                                                                                                                                                                                                                                                                                                                                                              
E|--------------3--------3-------|------3-----3--3--3--3--3--3--3--3--3-|
B|--4-----4--4--4--------4--4----|------4-----4--4--4--4--4--4--4--4--4-|
G|--5-----5--5-----------3--3--3-|------5--5-----5--5--5--5--5--5--5--5-|
D|--5--5--5--------------5-----5-|3--3--3--3-----6--6--6--5--5--5--5--5-|
A|--3--3--3----------------------|0--0----------------------------------|
E|-----------------6--6----------|--------------------------------------|

    
                                                                                                                                                                                                                                                                                                                                                                                                                                                                                                                                                                                                                                                                                                                                                                                                                                                                                                                                                                                                                                                                                                                                                                                              
E|--------------3--------3-------|------3-----3--3--3--3--3--3--3--3--3-|
B|--4-----4--4--4--------4--4----|------4-----4--4--4--4--4--4--4--4--4-|
G|--5-----5--5-----------3--3--3-|------5--5-----5--5--5--5--5--5--5--5-|
D|--5--5--5--------------5-----5-|3--3--3--3-----6--6--6--5--5--5--5--5-|
A|--3--3--3----------------------|0--0----------------------------------|
E|-----------------6--6----------|--------------------------------------|

    
                                                                                                                                                                                                                                                                                                                                                                                                                                                                                                                                                                                                                                                                                                                                                                                                                                                                                                                                                                                                                                                                                                                                                                                              
E|--3-----3-----3-----3----|3-----3-----3-----3----|
B|--3-----3-----6-----6----|4-----4-----5-----5----|
G|--4-----4-----4-----4----|5-----5-----5-----5----|
D|-------------------------|---5-----5-----5-----5-|
A|-----5-----5-----5-----5-|---3-----3-----3-----3-|
E|-----3-----3-----3-----3-|-----------------------|

    
                                                                                                                                                                                                                                                                                                                                                                                                                                                                                                                                                                                                                                                                                                                                                                                                                                                                                                                                                                                                                                                                                                                                                                                              
E|--1-----1----------------|1-----1----------------|
B|--1-----3----------------|1-----3----------------|
G|--2-----3----------------|2-----3----------------|
D|--3-----3----------------|3-----3----------------|
A|--3-----1----------------|3-----1----------------|
E|--1----------------------|1----------------------|

    
                                                                                                                                                                                                                                                                                                                                                                                                                                                                                                                                                                                                                                                                                                                                                                                                                                                                                                                                                                                                                                                                                                                                                                                              
E|--1-----1----------------|1-----1----------------|
B|--1-----3----------------|1-----3----------------|
G|--2-----3----------------|2-----3----------------|
D|--3-----3----------------|3-----3----------------|
A|--3-----1----------------|3-----1----------------|
E|--1----------------------|1----------------------|

    
                                                                                                                                                                                                                                                                                                                                                                                                                                                                                                                                                                                                                                                                                                                                                                                                                                                                                                                                                                                                                                                                                                                                                                                              
E|--1-----3----------------|1-----3----------------|
B|--3-----3----------------|3-----3----------------|
G|--2-----0----------------|2-----0----------------|
D|--0-----0----------------|0-----0----------------|
A|--------2----------------|------2----------------|
E|--------3----------------|------3----------------|

    
                                                                                                                                                                                                                                                                                                                                                                                                                                                                                                                                                                                                                                                                                                                                                                                                                                                                                                                                                                                                                                                                                                                                                                                              
E|--1-----3----------------|1-----3----------------|
B|--3-----3----------------|3-----3----------------|
G|--2-----0----------------|2-----0----------------|
D|--0-----0----------------|0-----0----------------|
A|--------2----------------|------2----------------|
E|--------3----------------|------3----------------|

    
                                                                                                                                                                                                                                                                                                                                                                                                                                                                                                                                                                                                                                                                                                                                                                                                                                                                                                                                                                                                                                                                                                                                                                                              
E|----------------------------------|--------------------------------|
B|----------------------------------|--------------------------------|
G|----------------------------------|--------------------------------|
D|--5-----3--------3-----5--3-----3-|6-----4--------4-----6--4-----4-|
A|--------------6--------------6----|------------6--------------6----|
E|----------------------------------|--------------------------------|

    
                                                                                                                                                                                                                                                                                                                                                                                                                                                                                                                                                                                                                                                                                                                                                                                                                                                                                                                                                                                                                                                                                                                                                                                              
E|----------------------------------|--------------------------------|
B|----------------------------------|--------------------------------|
G|----------------------------------|--------------------------------|
D|--5-----3--------3-----5--3-----3-|6-----4--------4-----6--4-----4-|
A|--------------6--------------6----|------------6--------------6----|
E|----------------------------------|--------------------------------|

About The Lovin' Spoonful : The Lovin' Spoonful was inducted into the Rock and Roll Hall of Fame in 2000 . The band is best known for hits including "Summer in the City", "Do You Believe In Magic", "Did You Ever Have to Make Up Your Mind?", and "Daydream" The band had its roots in the Greenwich Village area of lower Manhattan during the early 1960s . John Sebastian grew up in the Village in contact with music and musicians . Joe Butler was replaced by drummer Jan Carl and bassist Steve Boone . Butler had previously played with Boone in a group called The Kingsmen (not the hit group of "Louie Louie") The Lovin' Spoonful's most popular songs include Summer in the City,Do You Believe In Magic,Did You Ever Have to Make Up Your Mind?,Daydream. The Lovin' Spoonful The group has many notable artists like John Sebastian,Zal Yanovsky. Their music is influenced by genres - rock pop folk rock.

tabs and chords, guitar tabs, music transcription, music technology, deep learning, music information retrieval, transcribe into tabs & chords, chordify, music renditions, songsterr, reverbnation, tabulature, bollywood chords, ultimate guitar, yousician, guitar lessons, acoustic guitar, electric guitar, guitar tuner, 911 tabs