Guitar Tabs for Sucker For Pain(suicide Squad)

(/) Slide Up  (\) Slide Down  (h) Hammer On  (p) Pull Off  (b) Bend (r) Release (v) Vibrato (x) Muted

Tabs for Song : 

    I tourture Youuuu, Take my hand  through the flame. I tourture Youuuu, Im just a sucker for pain.

E|-----------9--8--6-----------------------------------------9--8--6-----------5--5--5--5--5--5--6--
B|--6--7--6-----------6-----------------------------6--7--6-----------6-----------------------------
G|--------------------------3--5--6------8\6--5-----------------------------------------------------
D|--------------------------------------------------------------------------------------------------
A|--------------------------------------------------------------------------------------------------
E|--------------------------------------------------------------------------------------------------

       I wanna Chain You up, I wanna tie you down, I tourture Youuuu, Im just a sucker for pain.
E|--------------------------------------------------------------9--8--6-----------5--5--5--5--5--5--6--
B|-----6--4--6---9\6-----4-----6--4--6---9\6-----4-----6--7--6-----------6-----------------------------
G|-----------------------------------------------------------------------------------------------------
D|-----------------------------------------------------------------------------------------------------
A|-----------------------------------------------------------------------------------------------------
E|-----------------------------------------------------------------------------------------------------

Paste any tab in acousterr's tab maker and we'll play it !!!
Now supports capo and sound effects for vibrato/pull-off/hammer/bends/mutes etc !!! Checkout help section
tabs and chords, guitar tabs, music contests, music covers, songsterr, reverbnation, renditions, tabulature, bollywood chords, ultimate guitar, yousician, guitar lessons, torrins, fender, gibson, acoustic guitar, electric guitar, youtube covers, gootar, guitar tuner, A-Z tabs, 911 tabs