Guitar Tabs for Study 14: F. Sor Op. 35 No. 14

(/) Slide Up  (\) Slide Down  (h) Hammer On  (p) Pull Off  (b) Bend (r) Release (v) Vibrato (x) Muted

Tabs for Song : 

Song lyrics here
E|--------------------0--1-----0-----------------------------------------------
B|--1--0-----0--1--3--------0--------3--1--0-----1--1--0--------0-----3--1--0--
G|--------1--------------2--1--------1--2--0--2-----------2--1-----------------
D|-----------------------0--2-----------------3-----0--------2-----------------
A|--------0--------------------------------------------------------------------
E|--------------------------------0--------------------------------0-----------

E|--------------0--2--3--1--0--------------------------------------
B|-----0--1--3-----1--0-----1--1-----3--0--1--3--0--1--------------
G|--2-----------------0-----------1-----2--------------0-----0-----
D|-----------------0-----------2--3-----------------------2--------
A|--0-----------------------------------------------3-----------3--
E|-----------------------------------------------------------------

E|--3--1--0--0--------------5-----3--1--1--0--------------------3-----1--0--0--0--
B|--------------3--1--1-----------------------3--3--1--0--0-----------------------
G|--------------------2--0--------------------------2--0--0-----------------------
D|--------------------------3--3-----0-----------------------3--2--2--0-----------
A|--------------------------------2-----0--------------------------------3--------
E|--------------------------------------------------------------------------------

E|-----0--0-----0--0--------0--0--------0--0-----0--0-----0--------0--------------
B|--3--------1-----------1--------------------3--------1-----1--0--------3--1--0--
G|--1--------2--------1-----------2--2--------1--------2--------1-----------------
D|-----------------------0-----------------------------------------2--------------
A|--2--------0-----------------------3--------2--------0--------------------------
E|--------------------------------------------------------------0-----0-----------

E|--------------0--1--------0--------------------------------------------
B|-----0--1--3--------0-----------3--1--0-----1--1--0--------0-----1--0--
G|--2--------------2-----2-----1-----2--0--2-----------2--1--------------
D|-----------------0-----------2-----------3-----0--------2--------------
A|--0--------------------------------------------------------------------
E|--------------------------------------------------------------0--------

E|--------------0-----------1-----------------0--------------------
B|-----0--1--3-----------3--------3--0-----1-----------0-----1-----
G|--2--------------2--3-----------------2-----------1-----2--------
D|-----------------3--0--------0--------2--------------------2-----
A|--0-----------------------------------------------------0-----0--
E|-----------------------------------------------0-----------------
tabs and chords, guitar tabs, music transcription, music technology, deep learning, music information retrieval, transcribe into tabs & chords, chordify, music renditions, songsterr, reverbnation, tabulature, bollywood chords, ultimate guitar, yousician, guitar lessons, acoustic guitar, electric guitar, guitar tuner, 911 tabs