Guitar Tabs for Minor Scale Patterns

Practice the minor scale pattern on each string from 3rd fret till 8th fret 

Minor Scale (Starting from the 6th String)
E|--------------------------------------------------
B|--------------------------------------------------
G|--------------------------------------------------
D|--------------------3--5--5--3--------------------
A|-----------3--5--6--------------6--5--3-----------
E|--3--5--6--------------------------------6--5--3--



Minor Scale (Starting from the 5th String)
E|--------------------------------------------------
B|--------------------------------------------------
G|--------------------3--5--5--3--------------------
D|-----------3--5--6--------------6--5--3-----------
A|--3--5--6--------------------------------6--5--3--
E|--------------------------------------------------



Minor Scale (Starting from the 4th String)
E|--------------------------------------------------
B|--------------------4--6--6--4--------------------
G|-----------3--5--6--------------6--5--3-----------
D|--3--5--6--------------------------------6--5--3--
A|--------------------------------------------------
E|--------------------------------------------------



Minor Scale (Starting from the 3rd String)
E|--------------------4--6--6--4--------------------
B|-----------4--6--7--------------7--6--4-----------
G|--3--5--6--------------------------------6--5--3--
D|--------------------------------------------------
A|--------------------------------------------------
E|--------------------------------------------------


tabs and chords, guitar tabs, music transcription, music technology, deep learning, music information retrieval, transcribe into tabs & chords, chordify, music renditions, songsterr, reverbnation, tabulature, bollywood chords, ultimate guitar, yousician, guitar lessons, acoustic guitar, electric guitar, guitar tuner, 911 tabs