Guitar Tabs for Street Spirit

(/) Slide Up  (\) Slide Down  (h) Hammer On  (p) Pull Off  (b) Bend (r) Release (v) Vibrato (x) Muted

Tabs for Song : 
BPM : 275



Verse
E|--------0-----------0-----------0-----------------------0-----------0-----------0-----------------
B|--------------3-----------1-----------0-----------------------3-----------1-----------0-----------
G|-----------2-----2-----2-----2-----2-----2-----2-----------2-----2-----2-----2-----2-----2-----2--
D|-----2--------------------------------------2--------2--------------------------------------2-----
A|--0-----------------------------------------------0-----------------------------------------------
E|--------------------------------------------------------------------------------------------------

E|--------0-----------0-----------0-----------------------0-----------0-----------0-----------------
B|--------------3-----------1-----------0-----------------------3-----------1-----------0-----------
G|-----------2-----2-----2-----2-----2-----2-----2-----------2-----2-----2-----2-----2-----2-----2--
D|-----2--------------------------------------2--------2--------------------------------------2-----
A|--0-----------------------------------------------0-----------------------------------------------
E|--------------------------------------------------------------------------------------------------

E|--------0-----------0-----------0-----------------------0-----------0-----------0-----------------
B|--------------3-----------1-----------0-----------------------3-----------1-----------0-----------
G|-----------2-----2-----2-----2-----2-----2-----2-----------2-----2-----2-----2-----2-----2-----2--
D|-----2--------------------------------------2--------2--------------------------------------2-----
A|--0-----------------------------------------------0-----------------------------------------------
E|--------------------------------------------------------------------------------------------------

E|--------0-----------0-----------0-----------------------0-----------0-----------0-----------------
B|--------------3-----------1-----------0-----------------------3-----------1-----------0-----------
G|-----------0-----0-----0-----0-----0-----0-----0-----------0-----0-----0-----0-----0-----0-----0--
D|--------------------------------------------2-----------------------------------------------2-----
A|-----2-----------------------------------------------2--------------------------------------------
E|--0-----------------------------------------------0-----------------------------------------------

E|--------0-----------0-----------0-----------------------0-----------0-----------0-----------------
B|--------------3-----------1-----------0-----------------------3-----------1-----------0-----------
G|-----------2-----2-----2-----2-----2-----2-----2-----------2-----2-----2-----2-----2-----2-----2--
D|-----2--------------------------------------2--------2--------------------------------------2-----
A|--0-----------------------------------------------0-----------------------------------------------
E|--------------------------------------------------------------------------------------------------


Chorus
E|--------0-----------0-----------0-----------------------0-----------0-----------0-----------------
B|--------------3-----------1-----------0-----------------------3-----------1-----------0-----------
G|-----------0-----0-----0-----0-----0-----0-----0-----------0-----0-----0-----0-----0-----0-----0--
D|-----2--------------------------------------2-----------------------------------------------2-----
A|--3--------------------------------------------------2--------------------------------------------
E|--------------------------------------------------0-----------------------------------------------

E|--------0-----------0-----------0-----------------------0-----------0-----------0-----------------
B|--------------3-----------1-----------0-----------------------3-----------1-----------0-----------
G|-----------2-----2-----2-----2-----2-----2-----2-----------2-----2-----2-----2-----2-----2-----2--
D|-----2--------------------------------------2--------2--------------------------------------2-----
A|--0-----------------------------------------------0-----------------------------------------------
E|--------------------------------------------------------------------------------------------------

E|--------0-----------0-----------0-----------------------0-----------0-----------0-----------------
B|--------------3-----------1-----------0-----------------------3-----------1-----------0-----------
G|-----------0-----0-----0-----0-----0-----0-----0-----------0-----0-----0-----0-----0-----0-----0--
D|-----2--------------------------------------2-----------------------------------------------2-----
A|--3--------------------------------------------------2--------------------------------------------
E|--------------------------------------------------0-----------------------------------------------

Verse
E|--------0-----------0-----------0-----------------------0-----------0-----------0-----------------
B|--------------3-----------1-----------0-----------------------3-----------1-----------0-----------
G|-----------2-----2-----2-----2-----2-----2-----2-----------2-----2-----2-----2-----2-----2-----2--
D|-----2--------------------------------------2--------2--------------------------------------2-----
A|--0-----------------------------------------------0-----------------------------------------------
E|--------------------------------------------------------------------------------------------------

E|--------0-----------0-----------0-----------------------0-----------0-----------0-----------------
B|--------------3-----------1-----------0-----------------------3-----------1-----------0-----------
G|-----------2-----2-----2-----2-----2-----2-----2-----------2-----2-----2-----2-----2-----2-----2--
D|-----2--------------------------------------2--------2--------------------------------------2-----
A|--0-----------------------------------------------0-----------------------------------------------
E|--------------------------------------------------------------------------------------------------

E|--------0-----------0-----------0-----------------------0-----------0-----------0-----------------
B|--------------3-----------1-----------0-----------------------3-----------1-----------0-----------
G|-----------0-----0-----0-----0-----0-----0-----0-----------0-----0-----0-----0-----0-----0-----0--
D|--------------------------------------------2-----------------------------------------------2-----
A|-----2-----------------------------------------------2--------------------------------------------
E|--0-----------------------------------------------0-----------------------------------------------

E|--------0-----------0-----------0-----------------------0-----------0-----------0-----------------
B|--------------3-----------1-----------0-----------------------3-----------1-----------0-----------
G|-----------2-----2-----2-----2-----2-----2-----2-----------2-----2-----2-----2-----2-----2-----2--
D|-----2--------------------------------------2--------2--------------------------------------2-----
A|--0-----------------------------------------------0-----------------------------------------------
E|--------------------------------------------------------------------------------------------------

Chorus
E|--------0-----------0-----------0-----------------------0-----------0-----------0-----------------
B|--------------3-----------1-----------0-----------------------3-----------1-----------0-----------
G|-----------0-----0-----0-----0-----0-----0-----0-----------0-----0-----0-----0-----0-----0-----0--
D|-----2--------------------------------------2-----------------------------------------------2-----
A|--3--------------------------------------------------2--------------------------------------------
E|--------------------------------------------------0-----------------------------------------------

E|--------0-----------0-----------0-----------------------0-----------0-----------0-----------------
B|--------------3-----------1-----------0-----------------------3-----------1-----------0-----------
G|-----------2-----2-----2-----2-----2-----2-----2-----------2-----2-----2-----2-----2-----2-----2--
D|-----2--------------------------------------2--------2--------------------------------------2-----
A|--0-----------------------------------------------0-----------------------------------------------
E|--------------------------------------------------------------------------------------------------

E|--------0-----------0-----------0-----------------------0-----------0-----------0-----------------
B|--------------3-----------1-----------0-----------------------3-----------1-----------0-----------
G|-----------0-----0-----0-----0-----0-----0-----0-----------0-----0-----0-----0-----0-----0-----0--
D|-----2--------------------------------------2-----------------------------------------------2-----
A|--3--------------------------------------------------2--------------------------------------------
E|--------------------------------------------------0-----------------------------------------------

Verse
E|--------0-----------0-----------0-----------------------0-----------0-----------0-----------------
B|--------------3-----------1-----------0-----------------------3-----------1-----------0-----------
G|-----------2-----2-----2-----2-----2-----2-----2-----------2-----2-----2-----2-----2-----2-----2--
D|-----2--------------------------------------2--------2--------------------------------------2-----
A|--0-----------------------------------------------0-----------------------------------------------
E|--------------------------------------------------------------------------------------------------

E|--------0-----------0-----------0-----------------------0-----------0-----------0-----------------
B|--------------3-----------1-----------0-----------------------3-----------1-----------0-----------
G|-----------2-----2-----2-----2-----2-----2-----2-----------2-----2-----2-----2-----2-----2-----2--
D|-----2--------------------------------------2--------2--------------------------------------2-----
A|--0-----------------------------------------------0-----------------------------------------------
E|--------------------------------------------------------------------------------------------------

E|--------0-----------0-----------0-----------------------0-----------0-----------0-----------------
B|--------------3-----------1-----------0-----------------------3-----------1-----------0-----------
G|-----------0-----0-----0-----0-----0-----0-----0-----------0-----0-----0-----0-----0-----0-----0--
D|--------------------------------------------2-----------------------------------------------2-----
A|-----2-----------------------------------------------2--------------------------------------------
E|--0-----------------------------------------------0-----------------------------------------------

E|--------0-----------0-----------0-----------------------0-----------0-----------0-----------------
B|--------------3-----------1-----------0-----------------------3-----------1-----------0-----------
G|-----------2-----2-----2-----2-----2-----2-----2-----------2-----2-----2-----2-----2-----2-----2--
D|-----2--------------------------------------2--------2--------------------------------------2-----
A|--0-----------------------------------------------0-----------------------------------------------
E|--------------------------------------------------------------------------------------------------

Chorus
E|--------0-----------0-----------0-----------------------0-----------0-----------0-----------------
B|--------------3-----------1-----------0-----------------------3-----------1-----------0-----------
G|-----------0-----0-----0-----0-----0-----0-----0-----------0-----0-----0-----0-----0-----0-----0--
D|-----2--------------------------------------2-----------------------------------------------2-----
A|--3--------------------------------------------------2--------------------------------------------
E|--------------------------------------------------0-----------------------------------------------

E|--------0-----------0-----------0-----------------------0-----------0-----------0-----------------
B|--------------3-----------1-----------0-----------------------3-----------1-----------0-----------
G|-----------2-----2-----2-----2-----2-----2-----2-----------2-----2-----2-----2-----2-----2-----2--
D|-----2--------------------------------------2--------2--------------------------------------2-----
A|--0-----------------------------------------------0-----------------------------------------------
E|--------------------------------------------------------------------------------------------------

E|--------0-----------0-----------0-----------------------0-----------0-----------0-----------------
B|--------------3-----------1-----------0-----------------------3-----------1-----------0-----------
G|-----------0-----0-----0-----0-----0-----0-----0-----------0-----0-----0-----0-----0-----0-----0--
D|-----2--------------------------------------2-----------------------------------------------2-----
A|--3--------------------------------------------------2--------------------------------------------
E|--------------------------------------------------0-----------------------------------------------

Outro
E|--------0-----------0-----------0-----------------------0-----------0-----------0--------------------
B|--------------3-----------1-----------0-----------------------3-----------1-----------0--------------
G|-----------2-----2-----2-----2-----2-----2-----2-----------2-----2-----2-----2-----2-----2-----2-----
D|-----2--------------------------------------2--------2--------------------------------------2--------
A|--0-----------------------------------------------0-----------------------------------------------0--
E|-----------------------------------------------------------------------------------------------------













Song lyrics here 
E|--
B|--
G|--
D|--
A|--
E|--

Use manual mode to free up cursor. Paste any tab in acousterr tab maker and we'll play it !!!











































































tabs and chords, guitar tabs, music transcription, music technology, deep learning, music information retrieval, transcribe into tabs & chords, chordify, music renditions, songsterr, reverbnation, tabulature, bollywood chords, ultimate guitar, yousician, guitar lessons, acoustic guitar, electric guitar, guitar tuner, 911 tabs