Guitar Tabs for "story Of My Life" - Social Distortion

(/) Slide Up  (\) Slide Down  (h) Hammer On  (p) Pull Off  (b) Bend (r) Release (v) Vibrato (x) Muted

Tabs for Song :  
BPM : 128

Song lyrics here

    
E|--3-----2---------------3-----2---------------|
B|--3--1--3---------------3--1--3---------------|
G|--0--0--2---------------0--0--2---------------|
D|--0--2-----0--2p0-------0--2-----0--2p0-------|
A|--0--3-------------2p0--0--3-------------2p0--|
E|--3---------------------3---------------------|


E|------------------------------------------------------------------------------|
B|-------------------------------------------------------------------3----------|
G|--------------------------------------------0---2--2--2---0---2/4----4p2--0---|
D|-----------2--0--0---2p0------------------------------------------------------|
A|-----2--3-----------------2p0---------2--3------------------------------------|
E|--3----------------------------3--3-------------------------------------------|


E|-----------------------------------3--3h5--3-------------3--5---7------------
B|----------------3--3h5--3--3--3h5--------------3---5--5----------------------
G|-----0--0--2/4---------------------------------------------------------------
D|--2--------------------------------------------------------------------------
A|-----------------------------------------------------------------------------
E|-----------------------------------------------------------------------------


E|----------------------------------------------------------------------3-----2---
B|----------------------------------------------------------------------3--1--3---
G|-----5---7------------5---7------------5---7------------5---7---------0--0--2---
D|--5--5---7---------5--5---7---------5--5---7---------5--5---7---------0--2------
A|--5--3---5---------5--3---5---------5--3---5---------5--3---5---------0--3------
E|--3----------------3----------------3----------------3----------------3---------


E|------------------------------------------------------------------------------|
B|-------------------------------------------------------------------3----------|
G|--------------------------------------------0---2--2--2---0---2/4----4p2--0---|
D|-----------2--0--0---2p0------------------------------------------------------|
A|-----2--3-----------------2p0---------2--3------------------------------------|
E|--3----------------------------3--3-------------------------------------------|


E|----------------------------------3--3h5--3-------------3--5---7---7-7-7--5---3-5-3-------------|
B|---------------3--3h5--3--3--3h5--------------3---5--5-------------------------------3--5---5-3-|
G|----0--0--2/4-----------------------------------------------------------------------------------|
D|-2----------------------------------------------------------------------------------------------|
A|------------------------------------------------------------------------------------------------|
E|------------------------------------------------------------------------------------------------|


E|--------------------------------------------------------------------------------------7----7----|
B|--------------------------------------------------------------------------------------6--r-6--8-|
G|--------------------------------------------------0--2-2--4---------------0--2-2--4---7----7--9-|
D|-0--2p0----------------------2--0----0--0---2--2--------------0--0---2-2------------------------|
A|---------2p0---------2--3-3---------------------------------------------------------------------|
E|---------------3--3-----------------------------------------------------------------------------|


E|---------------------7-----7---------------------------------7-------------------------5-----7-
B|--8-8----8---8---7---6--r--6---8----8--8---8--8---7-----8--8----8---------8------7--7------5---
G|--9-9----9---9---7---7-----7---9----9--9---9--9---7------------------9--9----9-----------------
D|-----------------7--------------------------------7--------------------------------------------
A|-----------------------------------------------------------------------------------------------
E|-----------------------------------------------------------------------------------------------


E|----------------7---------------------------5--------------------------------------------------
B|----------8--8-----8---------8--------7--7----7------------------------------------------------
G|-9--7------------------9--9-----9--------------------------------------------------------------
D|-----------------------------------------------------------------------------------------------
A|-----------------------------------------------------------------------------------------------
E|-----------------------------------------------------------------------------------------------




Paste any tab in acousterr's tab maker and we'll play it !!!
Now supports capo and sound effects for vibrato/pull-off/hammer/bends/mutes etc !!! Checkout help section














tabs and chords, guitar tabs, music transcription, music technology, deep learning, music information retrieval, transcribe into tabs & chords, chordify, music renditions, songsterr, reverbnation, tabulature, bollywood chords, ultimate guitar, yousician, guitar lessons, acoustic guitar, electric guitar, guitar tuner, 911 tabs