Guitar Tabs for Stormy Weather - Tokio Hotel

(/) Slide Up  (\) Slide Down  (h) Hammer On  (p) Pull Off  (b) Bend (r) Release (v) Vibrato (x) Muted

Tabs for Song : 
BPM : 270

Intro
E|-----------------------------------------------------------------------------
B|--------------------------------10----11-10----------------------------------
G|--7--7--10-9-----9--12-10----10----12-------12-10----7--7--10-9------9/12--7\
D|-----------------------------------------------------------------------------
A|-----------------------------------------------------------------------------
E|-----------------------------------------------------------------------------

Main Riff throughout the first half of each verse [2x]
E|-----------------------------------------------------------------------------------------------------
B|--------------------------------10----11-10----------------------------------------11-10----10-------
G|--7--7--10-9-----9--12-10----10----12-------12-10----7--7--10-9-----9--12-10----10-------12----12-10-
D|-----------------------------------------------------------------------------------------------------
A|-----------------------------------------------------------------------------------------------------
E|-----------------------------------------------------------------------------------------------------

second part of the verse
E|-------------------------------------8---------8-----------8---8/12-8--------------------------------------------------
B|----------------------------------10--10-8--10----10-8--10-------------10-8--------------------------------------------
G|--7-7-7-7-------10-10-10-10-----------------------------------------------------7--7--7--7-------10-10-10-10-----------
D|--7-7-7-7--[2x]-10-10-10-10---[2x]----------------------------------------------7--7--7--7--[x2]-10-10-10-10-[x2]------
A|--5-5-5-5-------8--8--8--8------------------------------------------------------5--5--5--5-------8--8--8--8------------
E|-----------------------------------------------------------------------------------------------------------------------

play as powerchords [4x]
E|-----------------------------------------------------------------------------------------------------
B|-----------------------------------------------------------------------------------------------------
G|-----------------------------------------------------------------------------------------------------
D|-----------------------------------------------------------------------------------------------------[x4]
A|-----5-----5--5--5-----8-----5-----5--5--5-----8-----------------------------------------------------
E|-----------------------------------------------------6--6--6--6--6--6--6--6--3--3--3--3--3--3--3--3--

solo before "It´s coming up..." and while "It`s coming up"
E|-----------------------------------------------------------------------------------------
B|-------------------------------10v-------------------------------------------------------
G|--5--7--5-----5-----------------------7--10-7---------------7v- 10-7v-10-----------------
D|-----------7-----7--[x4]-----------------------[x4]--[x2]---------------------8v-5v-[x2]-
A|-----------------------------------------------------------------------------------------
E|-----------------------------------------------------------------------------------------
tabs and chords, guitar tabs, music transcription, music technology, deep learning, music information retrieval, transcribe into tabs & chords, chordify, music renditions, songsterr, reverbnation, tabulature, bollywood chords, ultimate guitar, yousician, guitar lessons, acoustic guitar, electric guitar, guitar tuner, 911 tabs