Guitar Tabs for Storm Of Perdition

(/) Slide Up  (\) Slide Down  (h) Hammer On  (p) Pull Off  (b) Bend (r) Release (v) Vibrato (x) Muted

Tabs & Chords
BPM : 110.0
Check Track 2 for Chord Positions 

                A           Bm                         Em                                  G  
D|--0--0--------------------------------------------0--0--------0-----------------------------
A|-----------------------0--------0-----------------------------------------------0-----------
F|-----------------------------------------------------------------------------------0--------
C|-----------------------------------------------16-------------------------------------------
G|--------17----17----17----------------17----17-------------------17-17-17-16----------16-17-
D|--------------------------7--------------------------------12-------------------------------

                                                 Bm                F# Bm                      
D|--0-----------------------------------------------------0--------15-14----------------------
A|-----------------------------------------------------------------------17-15----------------
F|-----------------------------------------------16-------------------------------16----------
C|-----17----17----------16-17-16-17-16----16-16-------------------------------------16-17-16-
G|-----------------15-17----------------17----------17-17----16-------------------------------
D|--------------------------------------------------------------------------------------------

                         Em                                           F#m                     
D|-----------------------------------------------------------------------------14-------------
A|-----0--------------------------------------------------------14----17-17-------------------
F|-----------------------0-----0--------------16-------------16-------------------------------
C|--------------------17----------17-17-16-17-------17-16-17-------------------------17----17-
G|--17----------16-17-------------------------------------------------------------------------
D|--------17----------------------------------------------------------------------------------

       G        A           Bm                         
D|--------------0--0-----------------------------------
A|-----------------------------------------------0-----
F|--------------------14-------------------------------
C|-----------------------------------------------------
G|-----17-17-------------------------------------------
D|--------------------------7--7--7--14-7-----7-----7--





































Guitar Tabs for Storm Of Perdition






                A           Bm                         Em                                  G  
E|--------------0-----------2--------------------------0-----------------------------------3--
B|--------------2-----------3--------------------------0-----------------------------------3--
G|--------------2-----------4--------------------------0-----------------------------------4--
D|--------------2-----------4--------------------------2-----------------------------------5--
A|--------------0-----------2--------------------------2-----------------------------------5--
E|-----------------------------------------------------0-----------------------------------3--

                                                 Bm                F# Bm                      
E|-----------------------------------------------2-----------------2--2-----------------------
B|-----------------------------------------------3-----------------2--3-----------------------
G|-----------------------------------------------4-----------------3--4-----------------------
D|-----------------------------------------------4-----------------4--4-----------------------
A|-----------------------------------------------2-----------------4--2-----------------------
E|-----------------------------------------------------------------2--------------------------

                         Em                                           F#m                     
E|-----------------------0--------------------------------------------2-----------------------
B|-----------------------0--------------------------------------------2-----------------------
G|-----------------------0--------------------------------------------2-----------------------
D|-----------------------2--------------------------------------------4-----------------------
A|-----------------------2--------------------------------------------4-----------------------
E|-----------------------0--------------------------------------------2-----------------------

       G        A           Bm                         
E|-----3--------0-----------2--------------------------
B|-----3--------2-----------3--------------------------
G|-----4--------2-----------4--------------------------
D|-----5--------2-----------4--------------------------
A|-----5--------0-----------2--------------------------
E|-----3-----------------------------------------------

tabs and chords, guitar tabs, music transcription, music technology, deep learning, music information retrieval, transcribe into tabs & chords, chordify, music renditions, songsterr, reverbnation, tabulature, bollywood chords, ultimate guitar, yousician, guitar lessons, acoustic guitar, electric guitar, guitar tuner, 911 tabs