Bass Tabs for Stone Temple Pilot - Plush

Stone Temple Pilot - Plush

Pre-Verse
G|--------------------------------------------------------------------------
D|--------------------------------------------------------------------------
A|--------1-----1--2--3--3-----------2--3---4/5-----1--------1--2--3--3-----
E|--3--3-----3--------------3-----3--------------3--------3--------------3--

Verse
G|--------------------------------------------------------------------------------
D|-----------5--4--------2--3--3-----3--2--------0--1--1--------1--1--1--3--3--3--
A|-----------------5-----------------------3-----------------1--------------------
E|--3--3--------------------------------------------------------------------------

Verse 2
G|-----------------------------------------------------------------------------------------------------------
D|--------------------3--4-----------------------------------------------------------3--4--------------------
A|--5--5--3--2--3--5--------5--5--3--2-----5-----------2--3--4--5-----5--3--2--3--5--------5--5--3--2--3--5--
E|--------------------------------------------2--3--5--------------------------------------------------------

Pre Chorus
G|--------------------------5-----------------------------------------------------5-------------------------------
D|-----------------------5-----8--7--------------------------------------------5-----8--7-------------------------
A|--6--6-----6--6-----6--------------8-----8--8-----8--7--6--6-----6--6-----6--------------8-----8--8-----8/10\8--
E|--------6--------6--------------------8--------8--------------6--------6--------------------8--------8----------

Chorus
G|-----------------------------------------------------------------------------
D|-----------------------------------------------------------------------------
A|-----------------------------------------------------5--6--6--6--6--5--5-5/--
E|--3--3--3--3--3-----3--1--1--1-----1--0--0--0--0--0--------------------------

Last Note -> G





tabs and chords, guitar tabs, music contests, music covers, songsterr, reverbnation, renditions, tabulature, bollywood chords, ultimate guitar, yousician, guitar lessons, torrins, fender, gibson, acoustic guitar, electric guitar, youtube covers, gootar, guitar tuner, A-Z tabs, 911 tabs