Guitar Tabs for Stirway To Heaven Intro Tabs

(/) Slide Up  (\) Slide Down  (h) Hammer On  (p) Pull Off  (b) Bend (r) Release (v) Vibrato

Tabs for Song : Stirway to heaven intro

Stave 1:
E|----------------5-----------------------------------------8--8--8b10--8--5---------8-----
B|-------------------8--5-----------------------------8b10-----------------5--8--10--------
G|-----5--7b9--------------7--5-----7--5---------------------------------------------------
D|--7----------------------------7--------7--5---------------------------------------------
A|----------------------------------------------8------------------------------------------
E|-----------------------------------------------------------------------------------------

Stave 2:
E|--10--8----------------------------8--10--8------------------------------------------
B|---------10--8-----8h10-----8--10------------10--8-----10-----8--10--8-----10--------
G|----------------9-----------------------------------9------9------------9------9-----
D|-------------------------------------------------------------------------------------
A|-------------------------------------------------------------------------------------
E|-------------------------------------------------------------------------------------

Stave 3:
E|-----------------------------------------------------------
B|--8--10--8-----10-----8--10--8-----10-----8----------------
G|------------9------9------------9------------9\7--5-----5--
D|-----------------------------------------------------7-----
A|-----------------------------------------------------------
E|-----------------------------------------------------------
tabs and chords, guitar tabs, music contests, music covers, songsterr, reverbnation, renditions, tabulature, bollywood chords, ultimate guitar, yousician, guitar lessons, torrins, fender, gibson, acoustic guitar, electric guitar, youtube covers, gootar, guitar tuner, A-Z tabs, 911 tabs