Guitar Tabs for Stir It Up - Bob Marley

Tabbed By: Joey Ficetola Joeyficetola@hotmail.com
E|----------------------------------------------------------------------------------------------------------------|
B|-----------------------------------------------------------10----12----14----12----10----------10---------------|
G|--------------------9-----------------------9--9-----11----------------------------------11----------11---------|
D|--------7---9/11-------------7-----9--11------------------------------------------------------------------------|
A|--7--9-----------------7--9-----7-------------------------------------------------------------------------------|
E|----------------------------------------------------------------------------------------------------------------|

E|----------------------------------------------------------------------------------------------------------------|
B|----------------------------------------------------------------------------------------------------------------|
G|--9--------9--11----9--------9----------------------------------------------------------------------------------|
D|-----11----------------11-------11----9-------------------------------------------------------------------------|
A|-----------------------------------------12----9--------12----9-----------------9-------------------------------|
E|--------------------------------------------------12-------------12----9--12-------9--7--5--2--5--0-----0--2----|

E|-------------------------------------------------------------------------------------------------------|
B|--------------------------------------------------------------------------12----10----12----10----12---|
G|--------------------------------------------------------9-----------9--11----11----11----11----11------|
D|--------------------------------7-----7-----7-----9--11----9--11---------------------------------------|
A|--0--0-----2--------7--9-----9-----9-----9-------------------------------------------------------------|
E|--------2-----7--9-------------------------------------------------------------------------------------|

E|-------------------------------------------------------------------------------------------------------|
B|-- --10----------------------------------------------------10----10----10----10----10------------------|
G|--11----11----9--------9--11----9-----11----9--11----9--11----11----11----11----11----11----9-----9----|
D|-----------------11----------------11----------------------------------------------------------11------|
A|-------------------------------------------------------------------------------------------------------|
E|-------------------------------------------------------------------------------------------------------|

E|----------------------------------------------------------------------------------------------------------|
B|-----------------------------------------------------------------------------------14-15-14-15-14-17-15---|
G|----------------------------------------------------------------------------------------------------------|
D|--11----9--------9--------------------------------------------------------------2-------------------------|
A|-----------12-------12----9--------------------------------------------0--2--4----------------------------|
E|--------------------------------12----9--7--5--7--5--2--5--0--0--0--2-------------------------------------|

E|-------------------------------------------------------------------------------------------|
B|--14-15-14-14------------------------------------------------------------------------------|
G|--------------14----------14----14----14----------------------------------------14----14---|
D|-----------------14-14-16----16----16----16-14----------------------14-16-14-16----16------|
A|-----------------------------------------------16-14-12-14-12-14-16------------------------|
E|-------------------------------------------------------------------------------------------|

E|----------------------------------------------------------------------------------------------|
B|----------------------------------------------------------------------------------------------|
G|-----14----14----------------------14-------------------------14-16-14-13-11------------------|
D|--16----16----16----14----14----16-------16-14-16-14----14-16---------------------------------|
A|-----------------------16----------------------------16-------------------------12----12-12---|
E|----------------------------------------------------------------------------------------------|

E|----------------------------------------------------------------------------------------------------|
B|----------------------------------------------------------------------------------------------------|
G|-----------------------------------------------14-14-17-18-14----14---------------------------------|
D|-----------------------------16-14-12-14-14-16----------------14----14-11---------------------------|
A|--15-16----12----12----16-17----------------------------------------------12----------12-12-- -12---|
E|--------------12-------------------------------------------------------------12-12-14-------14------|

E|----------------------------------------------------------------------------------------------|
B|----------------------------------------------------------------------------------------------|
G|----------------------------------------------------------------------------------------------|
D|----------------------------------------------------------------------------------------------|
A|-----------------12-12----14----12----12------------------------------------------------------|
E|--12----12----14-------14----14----14---------------------------------------------------------|
tabs and chords, guitar tabs, music transcription, music technology, deep learning, music information retrieval, transcribe into tabs & chords, chordify, music renditions, songsterr, reverbnation, tabulature, bollywood chords, ultimate guitar, yousician, guitar lessons, acoustic guitar, electric guitar, guitar tuner, 911 tabs