Guitar Tabs for Still_the_same

(/) Slide Up  (\) Slide Down  (h) Hammer On  (p) Pull Off  (b) Bend (r) Release (v) Vibrato (x) Muted

Tabs & Chords
BPM : 117.0
Check Track 2 for Chord Positions 

       C                          G     C                                Em    G              
E|--------------------------------------------------------------------------------------------
B|-----------------------------------------------6-----------------------8--------------------
G|-----5--5-----5--5-----5--7-----7-----5--5-----------5--5--5--5--7-----------7--------------
D|--------------------------------------------------------------------------------------------
A|--------------------------------------------------------------------------------------------
E|-----------------------------------------------------------------------------------3-----3--

                      C                                      Em                G           C  
E|--------------------------------------------------------------------------------------------
B|--------------------0-----0-----------0--------------------0-----------------8-----------0--
G|-----------7-----0-----------6--5--------5--5-----5--------------------------------7--------
D|--------------------------------------------------------8-----------------------------------
A|--------------------------------------------------------------------------------------------
E|--3--7--------------------------------------------------------------0--0--------------------

                                              Em             G           F                    G  
E|-----------------------------------------------------------------------------0-----------------
B|--------------------------------------0--------------------------------------------6--6-----7--
G|--5-----5--5--5-----5--5-----5--6--7-----------------------7-----0-----------------------------
D|-----------------------------------------------------------------------------------------------
A|-----------------------------------------------------------------------------------------------
E|--------------------------------------------7--7-----7-----------------8--8--------------------

                C           E                    Am             Dm                         G  
E|-----------0--0-----0-----------------------0-----------0--------------------------0--------
B|--6--7--8-----------------------------------------------------------------------------------
G|--------------------------7-----7--6--7--------6--------------7-----7-----7--7--8--------0--
D|--------------------------------------------------7-----------------------------------------
A|--------------------------------------------------------------------------------------------
E|--------------------------------------------------------------------------------------------

                         C                                         Em          G              
E|--------------------------------------------------------------------------0-----------------
B|-----------------------0--------------0--------------------0-----7-----------8-----8--------
G|-----------7-----------------5--5--------5--6-----5--6--7--------------------------------7--
D|--------------------------------------------------------------------------------------------
A|--------------------------------------------------------------------------------------------
E|-----8--------------------------------------------------------------7-----------------------

       C                                         Em                      G                       
E|-----------------------------8-----------------------0-----------------------------------------
B|-----0--0-----------------0--------------------0--------------------------------8--------------
G|--------------5-----------------5-----5--6--7--------------------------7--------------0-----5--
D|-----------------------------------------------------------6--------------0--------------------
A|-----------------------------------------------------------------------------------------------
E|--------------------8--------------8-----------------------------8-----------------------------

    F              G              C     E                          Am                         
E|--0--0-----------------------0--0--------------0--------------------------------------------
B|--------6--6-----6-----6--------------------------------------------------------------------
G|--------------------------------------7--5--7-----7--7--8-----------------------------------
D|--------------------------------------------------------------------------------------------
A|-----------------------------------------------------------------0-----0-----0--7-----7--7--
E|--------------------------------------------------------------0-----------------------------

    Dm                   G     Em                C                 E                       A  
E|-----------------0-----------------------0-----0-----0--------------------------------------
B|--------------------------------------------------------------------------------------------
G|--7--7--------7--------0-----0--0-----7--------------------------7-----7--5--7-----6--------
D|-----------0--------------------------------------------------------------------------------
A|-----------------------------------------------------------------------------------------0--
E|-----------------------------------------------------------8--------------------------------

                                           Dm                                        G        
E|--------5--0--5-----9-----------------------------------------------------0-----------------
B|-----------------------------------6-----6-----6-----6--------------------------------------
G|-----------------------------------------------------------7--7--5--7--------5-----0--------
D|--------------------------7--7--------------------------------------------------------6-----
A|-----7--------------------------------------------------------------------------------------
E|-----------------------------------------------------------------------------------------3--

                Em          C           E                             A                       Dm 
E|--------------0--------------0-----0--------------------0--------------5-----0-----0-----------
B|--------------------------------------------------------------------------------------6-----6--
G|--------5-----------------------------7--5--7--5--7--8--------6--------------------------------
D|--------------------------------------------------------------------6--------------------------
A|-----------------------------------------------------------------------------------------------
E|-----8--------------------8--------------------------------------------------------------------

                         G     F     Dm    C                             Em          G        
E|-----------5-----0-----------------------8-----8--------8--------------0--------------------
B|-----6-----------------6-----6-----6--------------8--8-----8-----8--------------------------
G|-----------------------------------------------------------------------------7-----7--7--7--
D|--------------------------------------------------------------------------------------------
A|--------------------------------------------------------------------------------------------
E|--------------------------------------------------------------------------------------------

                   C                 Em             G                 F                 G        
E|-----------0-----0-----------10-------0-----------------------------0-----------------0--------
B|-----------------------------------------------------------------------------6--------------6--
G|-----7--------------------------------------6-----7-----------7--------8-----------------------
D|--------------------------------------------------------0--------------------------------------
A|-----------------------------------------------------------------------------------------------
E|-----------------------------------0-----------------------------------------------8-----------

                   C                 E                 Am          Dm                G           
E|--------------0-----0--------------------------------------------------------------------------
B|-----6-----8-----6-----------------------------------------------------------------------------
G|-----------------------------7-----7--5--7-----5-----5-----5-----7--5--7--5--7-----5--0-----0--
D|-----------------------------------------------------------------------------------------------
A|-----------------------------------------------------------------------------------------------
E|-----------------------------------------------------------------------------------------------

       Em       C                 Em             G              C                             
E|--------0-----------------------------------------------0-----0--0--------------------------
B|-----------------------------------------------------------------------8--------------------
G|-----7--------5-----5-----5--------------------7-----0-----------------------5-----5-----0--
D|--------------------------------------------------------------------------------------------
A|--------------------------------------------------------------------------------------------
E|--------------------------------7-----7--7--------------------------------------------------

             Em       G                    C                                Em    G           
E|--------------------------------0-----0--0--------------------------------7-----------------
B|-----------------------------------8--------------------------------8-----------8-----------
G|--------------------------0--0-----------------------7--5-----7--------------------0-----0--
D|--------------------------------------------------------------------------------------------
A|-----7-----------------------------------------7--------------------------------------------
E|-----------0--------3-----------------------------------------------------------------------

                   C                       
E|--------0-----0--0-----0--0--------------
B|--------------------6--------------------
G|--------------------------------0--------
D|--6--------------------------------------
A|-----------------------------------------
E|-----------------------------------------

Guitar Tabs for Still_the_same






       C                          G     C                                Em    G              
E|-----0--------------------------3-----0--------------------------------0-----3--------------
B|-----1--------------------------3-----1--------------------------------0-----3--------------
G|-----0--------------------------4-----0--------------------------------0-----4--------------
D|-----2--------------------------5-----2--------------------------------2-----5--------------
A|-----3--------------------------5-----3--------------------------------2-----5--------------
E|--------------------------------3--------------------------------------0-----3--------------

                      C                                      Em                G           C  
E|--------------------0--------------------------------------0-----------------3-----------0--
B|--------------------1--------------------------------------0-----------------3-----------1--
G|--------------------0--------------------------------------0-----------------4-----------0--
D|--------------------2--------------------------------------2-----------------5-----------2--
A|--------------------3--------------------------------------2-----------------5-----------3--
E|-----------------------------------------------------------0-----------------3--------------

                                              Em             G           F                    G  
E|--------------------------------------------0--------------3-----------1--------------------3--
B|--------------------------------------------0--------------3-----------1--------------------3--
G|--------------------------------------------0--------------4-----------2--------------------4--
D|--------------------------------------------2--------------5-----------3--------------------5--
A|--------------------------------------------2--------------5-----------3--------------------5--
E|--------------------------------------------0--------------3-----------1--------------------3--

                C           E                    Am             Dm                         G  
E|--------------0-----------0--------------------0--------------1--------------------------3--
B|--------------1-----------0--------------------1--------------3--------------------------3--
G|--------------0-----------1--------------------2--------------2--------------------------4--
D|--------------2-----------2--------------------2--------------0--------------------------5--
A|--------------3-----------2--------------------0-----------------------------------------5--
E|--------------------------0--------------------------------------------------------------3--

                         C                                         Em          G              
E|-----------------------0-----------------------------------------0-----------3--------------
B|-----------------------1-----------------------------------------0-----------3--------------
G|-----------------------0-----------------------------------------0-----------4--------------
D|-----------------------2-----------------------------------------2-----------5--------------
A|-----------------------3-----------------------------------------2-----------5--------------
E|-----------------------------------------------------------------0-----------3--------------

       C                                         Em                      G                       
E|-----0-----------------------------------------0-----------------------3-----------------------
B|-----1-----------------------------------------0-----------------------3-----------------------
G|-----0-----------------------------------------0-----------------------4-----------------------
D|-----2-----------------------------------------2-----------------------5-----------------------
A|-----3-----------------------------------------2-----------------------5-----------------------
E|-----------------------------------------------0-----------------------3-----------------------

    F              G              C     E                          Am                         
E|--1--------------3--------------0-----0--------------------------0--------------------------
B|--1--------------3--------------1-----0--------------------------1--------------------------
G|--2--------------4--------------0-----1--------------------------2--------------------------
D|--3--------------5--------------2-----2--------------------------2--------------------------
A|--3--------------5--------------3-----2--------------------------0--------------------------
E|--1--------------3--------------------0-----------------------------------------------------

    Dm                   G     Em                C                 E                       A  
E|--1--------------------3-----0-----------------0-----------------0-----------------------0--
B|--3--------------------3-----0-----------------1-----------------0-----------------------2--
G|--2--------------------4-----0-----------------0-----------------1-----------------------2--
D|--0--------------------5-----2-----------------2-----------------2-----------------------2--
A|-----------------------5-----2-----------------3-----------------2-----------------------0--
E|-----------------------3-----0-----------------------------------0--------------------------

                                           Dm                                        G        
E|-----------------------------------------1-----------------------------------------3--------
B|-----------------------------------------3-----------------------------------------3--------
G|-----------------------------------------2-----------------------------------------4--------
D|-----------------------------------------0-----------------------------------------5--------
A|-----------------------------------------------------------------------------------5--------
E|-----------------------------------------------------------------------------------3--------

                Em          C           E                             A                       Dm 
E|--------------0-----------0-----------0-----------------------------0-----------------------1--
B|--------------0-----------1-----------0-----------------------------2-----------------------3--
G|--------------0-----------0-----------1-----------------------------2-----------------------2--
D|--------------2-----------2-----------2-----------------------------2-----------------------0--
A|--------------2-----------3-----------2-----------------------------0--------------------------
E|--------------0-----------------------0--------------------------------------------------------

                         G     F     Dm    C                             Em          G        
E|-----------------------3-----1-----1-----0-----------------------------0-----------3--------
B|-----------------------3-----1-----3-----1-----------------------------0-----------3--------
G|-----------------------4-----2-----2-----0-----------------------------0-----------4--------
D|-----------------------5-----3-----0-----2-----------------------------2-----------5--------
A|-----------------------5-----3-----------3-----------------------------2-----------5--------
E|-----------------------3-----1-----------------------------------------0-----------3--------

                   C                 Em             G                 F                 G        
E|-----------------0-----------------0--------------3-----------------1-----------------3--------
B|-----------------1-----------------0--------------3-----------------1-----------------3--------
G|-----------------0-----------------0--------------4-----------------2-----------------4--------
D|-----------------2-----------------2--------------5-----------------3-----------------5--------
A|-----------------3-----------------2--------------5-----------------3-----------------5--------
E|-----------------------------------0--------------3-----------------1-----------------3--------

                   C                 E                 Am          Dm                G           
E|-----------------0-----------------0-----------------0-----------1-----------------3-----------
B|-----------------1-----------------0-----------------1-----------3-----------------3-----------
G|-----------------0-----------------1-----------------2-----------2-----------------4-----------
D|-----------------2-----------------2-----------------2-----------0-----------------5-----------
A|-----------------3-----------------2-----------------0-----------------------------5-----------
E|-----------------------------------0-----------------------------------------------3-----------

       Em       C                 Em             G              C                             
E|-----0--------0-----------------0--------------3--------------0-----------------------------
B|-----0--------1-----------------0--------------3--------------1-----------------------------
G|-----0--------0-----------------0--------------4--------------0-----------------------------
D|-----2--------2-----------------2--------------5--------------2-----------------------------
A|-----2--------3-----------------2--------------5--------------3-----------------------------
E|-----0--------------------------0--------------3--------------------------------------------

             Em       G                    C                                Em    G           
E|-----------0--------3--------------------0--------------------------------0-----3-----------
B|-----------0--------3--------------------1--------------------------------0-----3-----------
G|-----------0--------4--------------------0--------------------------------0-----4-----------
D|-----------2--------5--------------------2--------------------------------2-----5-----------
A|-----------2--------5--------------------3--------------------------------2-----5-----------
E|-----------0--------3-----------------------------------------------------0-----3-----------

                   C                       
E|-----------------0-----------------------
B|-----------------1-----------------------
G|-----------------0-----------------------
D|-----------------2-----------------------
A|-----------------3-----------------------
E|-----------------------------------------

tabs and chords, guitar tabs, music transcription, music technology, deep learning, music information retrieval, transcribe into tabs & chords, chordify, music renditions, songsterr, reverbnation, tabulature, bollywood chords, ultimate guitar, yousician, guitar lessons, acoustic guitar, electric guitar, guitar tuner, 911 tabs