Bass Tabs for Stevie Ray Vaughan - Pride And Joy

BASS TAB
Stevie Ray Vaughan - Pride and Joy

G|-----------------------------------------------------
D|-----------------------------------------------------
A|--7--5--4-----7--5--4-----7--5--4-----7--------------
E|-----------7-----------7-----------7-----2--3--4--5--

G|--------------------------
D|--7--5--4-----7--5--4-----
A|-----------7-----------7--
E|--------------------------

G|--------------------------
D|--------------------------
A|--7--5--4-----7--5--4-----
E|-----------7-----------7--

G|--------------------------------------------------
D|--9--7--6-----7--5--4-----------------------------
A|-----------9-----------7--7--5--4-----------------
E|-----------------------------------7-----5--6--7--
tabs and chords, guitar tabs, music transcription, music technology, deep learning, music information retrieval, transcribe into tabs & chords, chordify, music renditions, songsterr, reverbnation, tabulature, bollywood chords, ultimate guitar, yousician, guitar lessons, acoustic guitar, electric guitar, guitar tuner, 911 tabs