Bass Tabs for Stevie Ray Vaughan - Mary Had A Little Lamb

BASS TAB
Stevie Ray Vaughan - Mary Had a Little Lamb

G|--------------------------------------------------------------------------------
D|-----2--------0--1--2-----2--------1--2-----2--------1--2-----2--2--------0--2--
A|--------2--2-----------------2--2--------------2--2-----------------2--2--------
E|--0--------------------0-----------------0-----------------0--------------------

G|-----------------------------------------
D|-----7--------5--6--7-----7--------5--7--
A|--------7--7-----------------7--7--------
E|--5--------------------5-----------------

G|-----------------------------------------------------------------------------
D|-----9--------7--8--9-----7--------5--6--7-----2--------0--1--2--------------
A|--------9--9-----------------7--7-----------------2--2--------------0--1--2--
E|--7--------------------5--------------------0--------------------0-----------



tabs and chords, guitar tabs, music transcription, music technology, deep learning, music information retrieval, transcribe into tabs & chords, chordify, music renditions, songsterr, reverbnation, tabulature, bollywood chords, ultimate guitar, yousician, guitar lessons, acoustic guitar, electric guitar, guitar tuner, 911 tabs