Guitar Tabs for Step Right Up!

(/) Slide Up  (\) Slide Down  (h) Hammer On  (p) Pull Off  (b) Bend (r) Release (v) Vibrato (x) Muted

Tabs for Song : 
BPM : 200

Intro/Chorus
D|-----------------------------------------------------------------------------------
A|-----------------------------------------------------------------------------------
F|-----------------------------------------------------------------------------------
C|-----------------------------------------------------------------------------------
G|--8-----7--------2-----2--------------3--2--0-----2-----2--------------3--2--0-----
C|--8-----7--------2-----2-----5--4--2--------------2-----2-----5--4--2--------------

D|-----------------------------------------------------------------------------------
A|-----------------------------------------------------------------------------------
F|-----------------------------------------------------------------------------------
C|-----------------------------------------------------------------------------------
G|-----------------------------------------------------------------------------------
C|--0--0--0--0--0--0--8--0--7--0--5--0-----0--0--0--0--0--0--8--0--7--0--5--0--------

D|-----------------------------------------------------------------------------------
A|-----------------------------------------------------------------------------------
F|-----------------------------------------------------------------------------------
C|-----------------------------------------------------------------------------------
G|--2-----2--------------3--2--0-----2-----2--------------3--2--0--------------------
C|--2-----2-----5--4--2--------------2-----2-----5--4--2-----------------------------

D|-----------------------------------------------------------------------------------
A|-----------------------------------------------------------------------------------
F|-----------------------------------------------------------------------------------
C|-----------------------------------------------------------------------------------
G|-----------------------------------------------------------8-----7-----2-----------
C|--0--0--0--0--0--0--8--0--7--0--5--0-----0--0--0--0--0--0--8-----7-----2-----------

Verse
D|-----------------------------------------------------------------------------------
A|-----------------------------------------------------------------------------------
F|-----------------------------------------------------------------------------------
C|-----------------------------------------------------------------------------------
G|--8--7--5--8--7--5--2-----------------------------5--4--2--5--4--2--0--------------
C|--8--7--5--8--7--5--2-----------------------------5--4--2--5--4--2--0--------------

Bridge: Step Right Up Now Don't be Shy
D|--------------------------------------------------------------------
A|--------------------------------------------------------------------
F|--------------------4-----4--------------------7-----7--------------
C|--------------------2-----2--------------------5-----5--------------
G|--2-----2--2--2-----------------2-----2--2--2-----------------------
C|--2-----2--2--2-----------------2-----2--2--2-----------------------

D|--------------------------------------------------------------------
A|--------------------------------------------------------------------
F|--------------------------------------------------------------------
C|--------------------------------------------------------------------
G|--5--7--7--7--7--5--7--7--7--7--5--7--7--7--7--5--8--7--5--7--5--0--
C|--5--7--7--7--7--5--7--7--7--7--5--7--7--7--7--5--8--7--5--7--5--0--


riff during solo
D|--------------------------------------------------------------------
A|--------------------------------------------------------------------
F|--------------------------------------------------------------------
C|--------------------------------------------------------------------
G|--2-----2-----5--2--0--5--2--0-----2-----2-----5--2--0--5--2--0-----
C|--2-----2-----5--2--0--5--2--0-----2-----2-----5--2--0--5--2--0-----

D|--------------------------------------------------------------------
A|--------------------------------------------------------------------
F|--------------------------------------------------------------------
C|--------------------------------------------------------------------
G|--0-----0-----8--5--0--8--5--0-----0-----0-----8--5--0--8--5--0-----
C|--0-----0-----8--5--0--8--5--0-----0-----0-----8--5--0--8--5--0-----

Paste any tab in acousterr's tab maker and we'll play it !!!
Now supports capo and sound effects for vibrato/pull-off/hammer/bends/mutes etc !!! Checkout help section
tabs and chords, guitar tabs, music transcription, music technology, deep learning, music information retrieval, transcribe into tabs & chords, chordify, music renditions, songsterr, reverbnation, tabulature, bollywood chords, ultimate guitar, yousician, guitar lessons, acoustic guitar, electric guitar, guitar tuner, 911 tabs