Guitar Tabs for Starving - Hailee Steinfeld (fingerstyle Aries)

(/) Slide Up  (\) Slide Down  (h) Hammer On  (p) Pull Off  (b) Bend (r) Release (v) Vibrato (x) Muted

Tabs for Song : Starving
BPM : 100

Capo: 4th Fret

Intro to First Verse
E|--------------------------------------------------------------------0-----------------------------------------
B|--------------------1-----0-----------------------1-----3-----------1--1---1h3-----1--------1-----------1--3--
G|--------------------2-----0-----------------------2-----0-----------0-----------2-----0-----2-----0--2--------
D|-----2-----3-----------------------2-----3--------------------------2------0h---------------------------------
A|--3--------5-----0--------------3--------5-----0--------------------3--------------------0--------------------
E|--------------------------3-----------------------------3--------------------------------------3--------------
      
First Verse 
E|--0--------------------------------------------------------------------0--3--0--------0--------0--------------
B|--1--1---1h3-----1--------1---------------1h3--------------------1--3-----------3--1-----3-----1--1---1h3-----
G|--0-----------2-----0-----2--0--0--0--2--------------0--0--0--2--------------------------------0-----------2--
D|--2------0h---------------------------------------------------0--------------------------------2------0h------
A|--3--------------------0--------------------------3--------------------------0-----------------3--------------
E|-----------------------------3-----------------------------------------------------------3--------------------

E|--------------------------------------------------------------------------------------------------------------
B|--1--------1-----------1--3--3--1--1--------------------------------------------------------------------------
G|-----0-----2-----0--2-----------------------------------------------------------------------------------------
D|--------------------------------------------------------------------------------------------------------------
A|--------0-----------------------------------------------------------------------------------------------------
E|--------------3-----------------------------------------------------------------------------------------------

Chorus Part 1
E|-----------------------------------------------0-----------------------------------------------------------
B|------1h3------1h3---1h3---1h3---------1h3--3-----3--1--1--------------------------------------------------(2x)
G|--------------------------------2--0-----------------------------------------------------------------------
D|---------------0h------------------------------------------------------------------------------------------
A|--3------------------------------------0h------------------------------------------------------------------
E|-----------------------------------------------3-----------------------------------------------------------

Chorus Part 2
E|-----0--0--0--------------------------------0-----------------------------------------------------------------------------------------------------------------   
B|------------------1h3--3---1h3---1h3--3--3-----3--1-----------------------------------------------------------------------------------------------------------
G|--------------------------------------------------------------------------------------------------------------------------------------------------------------
D|--------------0-----------------------------------------------------------------------------------------------------------------------------------------------  
A|--3------------------------------0h---------------------------------------------------------------------------------------------------------------------------
E|-----------------------------------------------3-----------------------------------------------------------------------------------------------------------

Repeat Chorus Part 1
tabs and chords, guitar tabs, music transcription, music technology, deep learning, music information retrieval, transcribe into tabs & chords, chordify, music renditions, songsterr, reverbnation, tabulature, bollywood chords, ultimate guitar, yousician, guitar lessons, acoustic guitar, electric guitar, guitar tuner, 911 tabs