Guitar Tabs for Stardust Crusaders Ost

(/) Slide Up (v) Vibrato

Tabs for Song : Stardust Crusaders OST
Note : Timing may not be exact
By : CRISPY

E|-----------------------------------------------------------------------------------------------------------------------------
B|-----------------------------------------------------------------------------------------------------------------------------
G|-----------------------------------------------------------------------------------------------------------------------------
D|--3-----1--------------------------------------------0--1--2--3-----1--------------------------------------------0--1--2--3--
A|-----------3-----------2--1-----------2--1-----------------------------3-----------2--1-----------2--1-----------------------
E|--------------4--1-----------4--1-----------4--1--------------------------4--1-----------4--1-----------4--1-----------------

E|--------------------------------------------------------------------------------------------------------------------
B|--------------------------------------------------------------------------------------------------------------------
G|--------------------------------------------------------------------------------------------------------------------
D|--------1--2--3--------1--2--3--------1--2--3-----1--3--4--3--------1--2--3--------1--2--3--------1--2--3-----------
A|--3-----------------3-----------3-----------------------------3-----------------3-----------3-----------------------
E|--------------------------------------------------------------------------------------------------------------------

E|--------------------------------------------------------------------------------------------------------------------------------------------------------------
B|--------------------------------------------------------------------------------------------------------------------------------------------------------------
G|-----------------------------------------------------------1--3--4--5-----4-----1--------------5--4-----3-----1-----------------------------------------------
D|---------------------------------3/5--------------------------------------------------3-----------------------------3-----1--0--------------------------------
A|-----------------------3--------------------------------------------------------------------3-----------------------------------------------------------------
E|--1--------------4--------------------------------------------------------------------------------------------------------------------------------------------

E|-----------------------------------------------------------------------------------------------------------------------------------------------------------------------------------------------
B|-----------------------------------------------------------------------------------------------------------------------------------------------4--3--------------------------------------------
G|--------------------------------------------------------------------------------1--3--4--5-----4-----1--------------5--4-----3-----1-----------------------------------------------------------
D|--3--2--1--0--1--2--3---------------------------------3/5--------------------------------------------------3-----------------------------3-----------------------------------------------------
A|--------------------------------------------3--------------------------------------------------------------------3-----------------------------------------------------------------------------
E|--------------------------------------4--------------------------------------------------------------------------------------------------------------------------------------------------------

E|-----------------------------------------------------------------------------------------------------------------------------------
B|-----------------------------------------------------------------------------------------------------------------------------------
G|-----------------------------------------------------------------------------------------------------------------------------------
D|--3--------1--2--3--------1--2--3--------1--2--3-----1--3--4--3--------1--2--3--------1--2--3--------1--2--3-----------------------
A|-----3-----------------3-----------3-----------------------------3-----------------3-----------3-----------------------------------
E|-----------------------------------------------------------------------------------------------------------------1v----------------

tabs and chords, guitar tabs, music transcription, music technology, deep learning, music information retrieval, transcribe into tabs & chords, chordify, music renditions, songsterr, reverbnation, tabulature, bollywood chords, ultimate guitar, yousician, guitar lessons, acoustic guitar, electric guitar, guitar tuner, 911 tabs