Guitar Tabs for Star Spangled Banner (u.s. Armed Forces Edition)

(/) Slide Up  (\) Slide Down  (h) Hammer On  (p) Pull Off  (b) Bend (r) Release (v) Vibrato (x) Muted

Tabs for Song : U.S. Armed Forces Edition - United States of America (Star Spangled Banner)
                in the key of Bb
                
Majestically = 80bpm
Take first ending, then repeat and take second ending on through
E|-----------------------------------------------------------------------
B|-----------------------------------------------------------------------
G|-----------------------------------------------------------------------
D|-----------------5--7--7--8--------------------------------------------
A|--8--5-----5--8--------------5--7--8--8--8--5--6--5-----------5-----8--
E|--------6--------------------------------------------8--8--8-----6-----

First Ending
E|--------------
B|--------------
G|--------------
D|--------------
A|--5-----8--5--
E|-----6--------
Second Ending and on...
E|--------------------------------------------------------------------------------
B|--------------------------------------------------------------------------------
G|--------------------------------------------------------------------------------
D|--------------------------------------------------------------------------------
A|--5-----5--5--5--6--8--8--6--5-----5--6--6--6--5--------------------------------
E|-----6--------------------------8-----------------8--6--5--3--5--6--6--6--5--5--
76 bpm
E|--------------------------------------------------------------
B|--------------------------------------------------------------
G|--------------------------------------------------------------
D|--------------------------------------------------------------
A|--------5--6-----------6--5--------5-----8--8--8--6--5--6--5--
E|--6--6--------6--7--8--------8--6-----8-----------------------

E|--------------------
B|--------------------
G|--------------------
D|--------------------
A|--5--6--8--8--8--5--
E|--------------------

Paste any tab in acousterr's tab maker and we'll play it !!!
Now supports capo and sound effects for vibrato/pull-off/hammer/bends/mutes etc !!! Checkout help section
tabs and chords, guitar tabs, music transcription, music technology, deep learning, music information retrieval, transcribe into tabs & chords, chordify, music renditions, songsterr, reverbnation, tabulature, bollywood chords, ultimate guitar, yousician, guitar lessons, acoustic guitar, electric guitar, guitar tuner, 911 tabs