Guitar Tabs for Standing Still Tab

(/) Slide Up  (\) Slide Down  (h) Hammer On  (p) Pull Off  (b) Bend (r) Release (v) Vibrato (x) Muted

Standing Still Lead Tabs : 
BPM : 170

 Intro Riff                                   3x
E|----- ------------------------------------------------------------------------------------------------------------------                    
B|--9-9-9-9--8-8-8-8---6-6-6-6---12-12--13-13---------------------------------------------------------------------------------------------           
G|--8-8-8-8--8-8-8-8---6-6-6-6------------------------------------------------------------------------------------------------------
D|--8-8-8-8--8-8-8-8---6-6-6-6---10-10--11-11------------------------------------------------------------------------------------------------
A|----- ------------------------------------------------------------------------------------------------------------------                 
E|----- ------------------------------------------------------------------------------------------------------------------                  
Chorus Riff                                                            2x                        
E|----- ------------------------------------------------------------------------------------------------------------------                    
B|-------------------------------------------------------------8888888--------------------------------------------------           
G|----8-6-5---5-6-5---8-6-5------------8-6-5---5-6-5---8-6-5---8888888---------------------------------------------------------------------------
D|--66-6-6-666-6-6-666-6-6-666868686-66-6-6-666-6-6-666-6-6-6--6666666----------------------------------------------------------------------------------------------
A|----- ------------------------------------------------------------------------------------------------------------------                 
E|----- ------------------------------------------------------------------------------------------------------------------ 
tabs and chords, guitar tabs, music transcription, music technology, deep learning, music information retrieval, transcribe into tabs & chords, chordify, music renditions, songsterr, reverbnation, tabulature, bollywood chords, ultimate guitar, yousician, guitar lessons, acoustic guitar, electric guitar, guitar tuner, 911 tabs