Guitar Tabs for Stairway To Heaven Intro - Led Zeppelin

Stairway To Heaven Intro Guitar Tabs

E|-----------5--7--------7--8--------8--2--------2--0--------------
B|--------5--------5-----------5-----------3-----------1-----1-----
G|-----5--------------5-----------5-----------2-----------2--------
D|--7-----------6-----------5-----------4--------------------------
A|-----------------------------------------------------------------
E|-----------------------------------------------------------------

E|--0--------------------------------------------5--7--------
B|-----1-----0--1--1--------------------------5--------5-----
G|--------2--0--2--2-----------------------5--------------5--
D|--------------------------------------7-----------6--------
A|-----------2--0--0-----0---6h8--7--0-----------------------
E|-----------------------------------------------------------

E|--7--8--------8--2--------2--0--------------0--------------------
B|--------5-----------3-----------1-----1--------1-----0--1--1-----
G|-----------5-----------2-----------2--------------2--0--2--2-----
D|-----5-----------4-----------------------------------------------
A|-----------------------------------------------------2--0--0-----
E|-----------------------------------------------------------------

E|--------------------2--------2--0--------------------
B|-----------------5-----3-----------1-----5-----------
G|--------------0-----------2-----------2------4h5--2--
D|-----------2--------0--------------------------------
A|--0--2--3--------------------------------------------
E|-----------------------------------------------------

E|--------------------3--------3---3p2--2--2--
B|-----------------5-----3--------------------
G|--------------0-----------2-----------------
D|-----------2--------------------------------
A|--0--2--3-----------------------------------
E|--------------------------------------------


tabs and chords, guitar tabs, music contests, music covers, songsterr, reverbnation, renditions, tabulature, bollywood chords, ultimate guitar, yousician, guitar lessons, torrins, fender, gibson, acoustic guitar, electric guitar, youtube covers, gootar, guitar tuner, A-Z tabs, 911 tabs