Bass Tabs for Spongebob: Battle For Bikini Bottom - Downtown Bikini Bottom

(/) Slide Up  (\) Slide Down  (h) Hammer On  (p) Pull Off  (b) Bend (r) Release (v) Vibrato (x) Muted

Tabs for Song : Battle for Bikini Bottom - Downtown Bikini Bottom
BPM : 150

Main riff
G|-----------------------------------------------------------------------------------------------------
D|--------0--2--3--2--0-----------0--2--3--2--0-----------0--2--3--2--0-----------0--2--3--2--0--------
A|-----2-----------------2-----2-----------------2-----2-----------------2-----2-----------------2-----
E|--3-----------------------3-----------------------3-----------------------3-----------------------3--

Rotation to higher pitch
G|--------0--2--3--2--0-----------0--2--3--2--0--------------------------------------------------------
D|-----2-----------------2-----2-----------------2--------0--2--3--2--0-----------0--2--3--2--0--------
A|--3-----------------------3--------------------------2-----------------2-----2-----------------2-----
E|--------------------------------------------------3-----------------------3-----------------------3--

Use manual mode to free up cursor. Paste any tab in acousterr tab maker and we'll play it !!!
tabs and chords, guitar tabs, music transcription, music technology, deep learning, music information retrieval, transcribe into tabs & chords, chordify, music renditions, songsterr, reverbnation, tabulature, bollywood chords, ultimate guitar, yousician, guitar lessons, acoustic guitar, electric guitar, guitar tuner, 911 tabs