Spenn - Jokke Og Valentinerene - Guitar Tabs

Gitar 1
    
                                                                                                                                                                                                                                                                                                                                                                                                                                                                                                                                                                                                                                                                                                                                                                                                                                                                                                                                                                                                                                                                                                                                                                                              
E|-------------------------|-----------------------|
B|-------------------------|-----------------------|
G|--2-----2--2-----------2-|---------2--4--5--4----|
D|--2-----2--2-----------2-|---2--2--2--4--5--4----|
A|--0-----0-----5--2--5--0-|---0--0--0--2--3--2----|
E|--------------3--0--3----|-----------------------|

    
                                                                                                                                                                                                                                                                                                                                                                                                                                                                                                                                                                                                                                                                                                                                                                                                                                                                                                                                                                                                                                                                                                                                                                                              
E|-------------------------|-----------------------|
B|-------------------------|-----------------------|
G|--2-----2--2-----------2-|---------2--4--5--4----|
D|--2-----2--2-----------2-|---2--2--2--4--5--4----|
A|--0-----0-----5--2--5--0-|---0--0--0--2--3--2----|
E|--------------3--0--3----|-----------------------|

    
                                                                                                                                                                                                                                                                                                                                                                                                                                                                                                                                                                                                                                                                                                                                                                                                                                                                                                                                                                                                                                                                                                                                                                                              
E|-------------------------|-----------------------|
B|-------------------------|-----------------------|
G|--2-----2--2-----------2-|---------2--4--5--4----|
D|--2-----2--2-----------2-|---2--2--2--4--5--4----|
A|--0-----0-----5--2--5--0-|---0--0--0--2--3--2----|
E|--------------3--0--3----|-----------------------|

    
                                                                                                                                                                                                                                                                                                                                                                                                                                                                                                                                                                                                                                                                                                                                                                                                                                                                                                                                                                                                                                                                                                                                                                                              
E|-------------------------|-----------------------|
B|-------------------------|-----------------------|
G|--2-----2--2-----------2-|---------2--4--5--4----|
D|--2-----2--2-----------2-|---2--2--2--4--5--4----|
A|--0-----0-----5--2--5--0-|---0--0--0--2--3--2----|
E|--------------3--0--3----|-----------------------|

    
                                                                                                                                                                                                                                                                                                                                                                                                                                                                                                                                                                                                 
E|-------------------------|
B|-------------------------|
G|--2----------------------|
D|--2----------------------|
A|--0----------------------|
E|-------------------------|

    
                                                                                                                                                                                                                                                                                                                                                                                                                                                                                                                                                                                                                                                                                                                                                                                                                                                                                                                                                                                                                                                                                                                                                                                              
E|-------------------------|--------------------------|
B|-------------------------|--------------------------|
G|--2-----2--2-----------2-|---2--2--------4--5--4----|
D|--2-----2--2-----------2-|---2--2--2--2--4--5--4----|
A|--0-----0-----5--2--5--0-|---0--0--0--0--2--3--2----|
E|--------------3--0--3----|--------------------------|

    
                                                                                                                                                                                                                                                                                                                                                                                                                                                                                                                                                                                                 
E|-------------------------|
B|-------------------------|
G|--2----------------------|
D|--2----------------------|
A|--0----------------------|
E|-------------------------|

    
                                                                                                                                                                                                                                                                                                                                                                                                                                                                                                                                                                                                                                                                                                                                                                                                                                                                                                                                                                                                                                                                                                                                                                                              
E|-------------------------|--------------------------|
B|-------------------------|--------------------------|
G|--2-----2--2-----------2-|---2--2--------4--5--4----|
D|--2-----2--2-----------2-|---2--2--2--2--4--5--4----|
A|--0-----0-----5--2--5--0-|---0--0--0--0--2--3--2----|
E|--------------3--0--3----|--------------------------|

    
                                                                                                                                                                                                                                                                                                                                                                                                                                                                                                                                                                                                 
E|-------------------------|
B|-------------------------|
G|--2----------------------|
D|--2----------------------|
A|--0----------------------|
E|-------------------------|

    
                                                                                                                                                                                                                                                                                                                                                                                                                                                                                                                                                                                                                                                                                                                                                                                                                                                                                                                                                                                                                                                                                                                                                                                              
E|-------------------------|--------------------------|
B|-------------------------|--------------------------|
G|--2-----2--2-----------2-|---2--2--------4--5--4----|
D|--2-----2--2-----------2-|---2--2--2--2--4--5--4----|
A|--0-----0-----5--2--5--0-|---0--0--0--0--2--3--2----|
E|--------------3--0--3----|--------------------------|

    
                                                                                                                                                                                                                                                                                                                                                                                                                                                                                                                                                                                                 
E|-------------------------|
B|-------------------------|
G|--2----------------------|
D|--2----------------------|
A|--0----------------------|
E|-------------------------|

    
                                                                                                                                                                                                                                                                                                                                                                                                                                                                                                                                                                                                                                                                                                                                                                                                                                                                                                                                                                                                                                                                                                                                                                                              
E|-------------------------|--------------------------|
B|-------------------------|--------------------------|
G|--2-----2--2-----------2-|---2--2--------4--5--4----|
D|--2-----2--2-----------2-|---2--2--2--2--4--5--4----|
A|--0-----0-----5--2--5--0-|---0--0--0--0--2--3--2----|
E|--------------3--0--3----|--------------------------|

    
                                                                                                                                                                                                                                                                                                                                                                                                                                                                                                                                                                                                                                                                                                                                                                                                                                                                                                                                                                                                                                                                                                                                                                                              
E|--2-----2-----2----------|-----------------------|
B|--3-----3-----3-----3--3-|-----------------------|
G|--2-----2-----2-----2--2-|1-----1-----1-----1--1-|
D|--0-----0-----0-----0----|2-----2-----2-----2--2-|
A|-------------------------|2-----2-----2-----2----|
E|-------------------------|0-----0-----0-----0----|

    
                                                                                                                                                                                                                                                                                                                                                                                                                                                                                                                                                                                                                                                                                                                                                                                                                                                                                                                                                                                                                                                                                                                                                                                              
E|-------------------------|2-----2-----2----------|
B|--2-----2-----2-----2----|3-----3-----3-----3--3-|
G|--2-----2-----2-----2--2-|2-----2-----2-----2--2-|
D|--2-----2-----2-----2--2-|0-----0-----0-----0----|
A|--0-----0-----0-----0----|-----------------------|
E|-------------------------|-----------------------|

    
                                                                                                                                                                                                                                                                                                                                                                                                                                                                                                                                                                                                                                                                                                                                                                                                                                                                                                                                                                                                                                                                                                                                                                                              
E|-------------------------|-----------------------|
B|-------------------------|-----------------------|
G|--1-----1-----1-----1----|-----------------------|
D|--2-----2-----2-----2----|------7-----------5----|
A|--2-----2-----2-----2----|------7-----5--5--5--5-|
E|--0-----0-----0-----0----|------5-----3--3--3--3-|

    
                                                                                                                                                                                                                                                                                                                                                                                                                                                                                                                                                                                                                                                                                                                                                                                                                                                                                                                                                                                                                                                                                                                                                                                              
E|-------------------------|-----------------------|
B|-------------------------|-----------------------|
G|-------------------------|-----------------------|
D|--------7-----------5----|------7-----------5----|
A|--7--7--7--7--5--5--5--5-|7--7--7--7--5--5--5--5-|
E|--5--5--5--5--3--3--3--3-|5--5--5--5--3--3--3--3-|

    
                                                                                                                                                                                                                                                                                                                                                                                                                                                                                                                                                                                                                                                                                                                                                                                                                                                                                                                                                                                                                                                                                                                                                                                              
E|-------------------------|-----------------------|
B|-------------------------|-----------------------|
G|-------------------------|-----------------------|
D|--------7-----------5----|------7-----------5----|
A|--7--7--7--7--5--5--5--5-|7--7--7--7--5--5--5--5-|
E|--5--5--5--5--3--3--3--3-|5--5--5--5--3--3--3--3-|

    
                                                                                                                                                                                                                                                                                                                                                                                                                                                                                                                                                                                                                                                                                                                                                                                                                                                                                                                                                                                                                                                                                                                                                                                              
E|-------------------------|-----------------------|
B|-------------------------|-----------------------|
G|-------------------------|-----------------------|
D|--------7-----------5----|------7-----------5----|
A|--7--7--7--7--5--5--5--5-|7--7--7--7--5--5--5--5-|
E|--5--5--5--5--3--3--3--3-|5--5--5--5--3--3--3--3-|

    
                                                                                                                                                                                                                                                                                                                                                                                                                                                                                                                                                                                                                                                                                                                                                                                                                                                                                                                                                                                                                                                                                                                                                                                              
E|-------------------------|-----------------------|
B|-------------------------|-----------------------|
G|-------------------------|2-----2--2-----------2-|
D|--------7-----------5----|2-----2--2-----------2-|
A|--7--7--7--7--5--5--5--5-|0-----0-----5--2--5--0-|
E|--5--5--5--5--3--3--3--3-|------------3--0--3----|

    
                                                                                                                                                                                                                                                                                                                                                                                                                                                                                                                                                                                                                                                                                                                                                                                                                                                                                                                                                                                                                                                                                                                                                                                              
E|----------------------------|-----------------------|
B|----------------------------|-----------------------|
G|-----2--2--------4--5--4----|2-----2--2-----------2-|
D|-----2--2--2--2--4--5--4----|2-----2--2-----------2-|
A|-----0--0--0--0--2--3--2----|0-----0-----5--2--5--0-|
E|----------------------------|------------3--0--3----|

    
                                                                                                                                                                                                                                                                                                                                                                                                                                                                                                                                                                                                                                                                                                                                                                                                                                                                                                                                                                                                                                                                                                                                                                                              
E|----------------------------|-----------------------|
B|----------------------------|-----------------------|
G|-----2--2--------4--5--4----|2-----2--2-----------2-|
D|-----2--2--2--2--4--5--4----|2-----2--2-----------2-|
A|-----0--0--0--0--2--3--2----|0-----0-----5--2--5--0-|
E|----------------------------|------------3--0--3----|

    
                                                                                                                                                                                                                                                                                                                                                                                                                                                                                                                                                                                                                                                                                                                                                                                                                                                                                                                                                                                                                                                                                                                                                                                              
E|----------------------------|-----------------------|
B|----------------------------|5-----5----------------|
G|-----2--2--------4--5--4----|5-----5-----4-----4----|
D|-----2--2--2--2--4--5--4----|5-----5-----5-----5----|
A|-----0--0--0--0--2--3--2----|3-----3-----5-----5---5/
E|----------------------------|------------3-----3---3/

    
                                                                                                                                                                                                                                                                                                                                                                                                                                                                                                                                                                                                                                                                                                                                                                                                                                                                                                                                                                                                                                                                                                                                                                                              
E|-------------------------|-----------------------|
B|--------------5-----5----|5-----5----------------|
G|--2-----2-----5-----5----|5-----5-----4-----4----|
D|--3-----3-----5-----5--5-|5-----5--(5)5-----5----|
A|--3-----3-----3-----3--3-|3-----3--(3)5-----5--(5)
E|--1-----1----------------|------------3-----3--(3)

    
                                                                                                                                                                                                                                                                                                                                                                                                                                                                                                                                                                                                                                                                                                                                                                                                                                                                                                                                                                                                                                                                                                                                                                                              
E|-------------------------|-----------------------|
B|--------------5-----5----|5-----5----------------|
G|--2-----2-----5-----5----|5-----5-----4-----4----|
D|--3-----3-----5-----5----|5-----5-----5-----5----|
A|--3-----3-----3-----3----|3-----3-----5-----5--(5)
E|--1-----1----------------|------------3-----3--(3)

    
                                                                                                                                                                                                                                                                                                                                                                                                                                                                                                                                                                                                                                                                                                                                                                                                                                                                                                                                                                                                                                                                                                                                                                                              
E|-------------------------|-----------------------|
B|--------------5-----5----|-----------------------|
G|--2-----2-----5-----5----|2-----2--2-----------2-|
D|--3-----3-----5-----5--5-|2-----2--2-----------2-|
A|--3-----3-----3-----3--3-|0-----0-----5--2--5--0-|
E|--1-----1----------------|------------3--0--3----|

    
                                                                                                                                                                                                                                                                                                                                                                                                                                                                                                                                                                                                                                                                                                                                                                                                                                                                                                                                                                                                                                                                                                                                                                                              
E|-------------------------|-----------------------|
B|-------------------------|-----------------------|
G|-----------2--4--5--4----|2-----2--2-----------2-|
D|-----2--2--2--4--5--4----|2-----2--2-----------2-|
A|-----0--0--0--2--3--2----|0-----0-----5--2--5--0-|
E|-------------------------|------------3--0--3----|

    
                                                                                                                                                                                                                                                                                                                                                                                                                                                                                                                                                                                                                                                                                                                                                                                                                                                                                                                                                                                                                                                                                                                                                                                              
E|-------------------------|-----------------------|
B|-------------------------|-----------------------|
G|-----------2--4--5--4----|2-----2--2-----------2-|
D|-----2--2--2--4--5--4----|2-----2--2-----------2-|
A|-----0--0--0--2--3--2----|0-----0-----5--2--5--0-|
E|-------------------------|------------3--0--3----|

    
                                                                                                                                                                                                                                                                                                                                                                                                                                                                                                                                                                                                                                                                                                                                                                                                                                                                                                                                                                                                                                                                                                                                                                                              
E|-------------------------|-----------------------|
B|-------------------------|-----------------------|
G|-----------2--4--5--4----|2-----2--2-----------2-|
D|-----2--2--2--4--5--4----|2-----2--2-----------2-|
A|-----0--0--0--2--3--2----|0-----0-----5--2--5--0-|
E|-------------------------|------------3--0--3----|

    
                                                                                                                                                                                                                                                                                                                                                                                                                                                                                                                                                                                                                                                                                                                                                                                                                                                                                                                                                                                                                                                                                                                                                                                              
E|-------------------------|-----------------------|
B|-------------------------|-----------------------|
G|-----------2--4--5--4----|7----------------------|
D|-----2--2--2--4--5--4----|7----------------------|
A|-----0--0--0--2--3--2----|5----------------------|
E|-------------------------|-----------------------|

    
                                                                                                                                                                                                                                                                                                                                                                                                                                                                                                                                                                                                 
E|-------------------------|
B|-------------------------|
G|--7-----7--------------7-|
D|--7-----7--7--5-----5--7-|
A|--5-----5--5--3--0--3--5-|
E|-------------------------|
tabs and chords, guitar tabs, music transcription, music technology, deep learning, music information retrieval, transcribe into tabs & chords, chordify, music renditions, songsterr, reverbnation, tabulature, bollywood chords, ultimate guitar, yousician, guitar lessons, acoustic guitar, electric guitar, guitar tuner, 911 tabs