Guitar Tabs for Sparks Fly By Taylor Swift

(/) Slide Up  (\) Slide Down  (h) Hammer On  (p) Pull Off  (b) Bend (r) Release (v) Vibrato (x) Muted

Tabs for Song : 


Capo on 5th Fret
E|-----------------------------------------------------------------------
B|--1--1-----1---1/3--1--1-----1---1/3--1--1-----1---1/3--0--1--3---3/5--
G|--------2-----------------2-----------------2--------------------------
D|-----------------------------------------------------------------------
A|-----------------------------------------------------------------------
E|-----------------------------------------------------------------------

E|--------------------------------------------------------------------------------
B|--1--1-----1---1/3--1--1-----1---1/3--1--1-----1---1/3--0--1--3---3/5--3--1-----
G|--------2-----------------2-----------------2--------------------------------2--
D|--------------------------------------------------------------------------------
A|--------------------------------------------------------------------------------
E|--------------------------------------------------------------------------------

E|-----------------------------------------------------------------
B|-----5--3--3--1--1-----1--1-----------------5--1--3--5--5--5--3--
G|--2-----------------2--------2--0--0--0--0-----------------------
D|-----------------------------------------------------------------
A|-----------------------------------------------------------------
E|-----------------------------------------------------------------

E|--------------------------------------------------------------------------
B|--1-----5--3--3--1--1-----1--1--------------5--5--5--3--3--1--3--1--1-----
G|-----2-----------------2--------2--0--0--0-----------------------------2--
D|--------------------------------------------------------------------------
A|--------------------------------------------------------------------------
E|--------------------------------------------------------------------------

E|-----------------------------------------------
B|-----------------------------------------------
G|--2--9--7--5--5--7--7--9--5--5---9/5--7---9/5--
D|-----------------------------------------------
A|-----------------------------------------------
E|-----------------------------------------------

Paste any tab in acousterr's tab maker and we'll play it !!!
Now supports capo and sound effects for vibrato/pull-off/hammer/bends/mutes etc !!! Checkout help section
tabs and chords, guitar tabs, music transcription, music technology, deep learning, music information retrieval, transcribe into tabs & chords, chordify, music renditions, songsterr, reverbnation, tabulature, bollywood chords, ultimate guitar, yousician, guitar lessons, acoustic guitar, electric guitar, guitar tuner, 911 tabs