Guitar Tabs for Soulful L'ndecis

(/) Slide Up  (\) Slide Down  (h) Hammer On  (p) Pull Off  (b) Bend (r) Release (v) Vibrato (x) Muted

Tabs for Song : 
BPM : 150

Song lyrics here 
E|--
B|--
G|--
D|--
A|--
E|--

Song lyrics here 

E|---------------------------------------------------------------------------------------------
B|--------------------------------------------------------------------------------------------
G|--------------------------------------------------------------------------------------------
D|-----9-----------7-----------4-----------2-----------9-----------7-----------4--------------
A|--7-----------7-----------2-----------2-----------7-----------7-----------2-----------2-----
E|-----------------------------------------------------------------------------------------

E|-----------------------------------------------------------------------------
B|-----------------------------------------------------------------------------
G|--------------------------15p14-12----12-14----------------12----11-12-14-11-
D|-----------------------------------14-------13----------13----14-------------
A|--12p10-------10-------------------------------14----14----------------------
E|--------12p10----12-10/0-----------------------------------------------------

E|-----------------------------------------------------------
B|-----------------------------------------------------------
G|--11-------------------------------------------------------
D|-----12-------------------12----------14----14-16-17-16-14-
A|--------14-12----10-12-14----14-12-14----------------------
E|--------------12-------------------------------------------

E|--------------------------------------------------------14-15-17-14----------19\0--------------
B|--------------------------------------------15-17-15----------------15----15-------------------
G|--16-14-------------------------------16-------------16----------------14-------------16-16----
D|--------17-16-------------12-------------17----------------------------------------------------
A|--------------14-14-12-14----------------------------------------------------------------------
E|-----------------------------------------------------------------------------------------------

E|--------------14-15-14-------------------------------------------------------------------------
B|-----------15----------17-15-------------------------------------------------------------------
G|--------16-------------------16-14-16-12-14----------------------------------------------------
D|--16-17-------------------------------------12-14-------------16-12-9--------------------------
A|--------------------------------------------------12-10----------------10-12-7--7--7--9--7--5--
E|--------------------------------------------------------12-------------------------------------

E|-----------------------------------------------------------------------------------------------------
B|-----------------------------------------------------------------------------------------------------
G|-----------------------------15-14-12----12-14-------------12----11-12-14-11-11----------------------
D|--------------------------------------14-------13-------13----14----------------12-------------------
A|--12-10-------10----------------------------------14-14----------------------------14-12----10-12-14-
E|--------12-10----12-10\0-----------------------------------------------------------------12----------

E|-----------------------------------------------------------------------------------------
B|--------------------------------------------------------------------------15----17-15----
G|-----------------------------------16-14----------------------------16-------14-------16-
D|--12----------14-14-16-17-16-14----------17-16-------------12----------17----------------
A|-----14-12-14----------------------------------14-14-12-14-------------------------------
E|-----------------------------------------------------------------------------------------

E|--14-15-17-14----------19\0-----15-14-------------------14-15-14-------------------------------------
B|--------------15----15-------------------------------15----------17-15-------------------------------
G|-----------------14----------16-------16-16-------16-------------------16-14-16-12-14----------------
D|--------------------------------------------16-17-------------------------------------12-14----------
A|--------------------------------------------------------------------------------------------12-10----
E|--------------------------------------------------------------------------------------------------12-

E|-----------------------------------
B|-----------------------------------
G|-----------------------------------
D|--16-12-9--------------------------
A|-----------10-12-7--9--7--9--7--5--
E|-----------------------------------


Use manual mode to free up cursor. Paste any tab in acousterr tab maker and we'll play it !!!
tabs and chords, guitar tabs, music transcription, music technology, deep learning, music information retrieval, transcribe into tabs & chords, chordify, music renditions, songsterr, reverbnation, tabulature, bollywood chords, ultimate guitar, yousician, guitar lessons, acoustic guitar, electric guitar, guitar tuner, 911 tabs