Guitar Tabs for Sorry - Justin Bieber Tabs

(/) Slide Up  (\) Slide Down  (h) Hammer On  (p) Pull Off  (b) Bend (r) Release (v) Vibrato

Tabs for Song : Sorry

Intro
E|--------------------------------------3--3-----------
B|--------4--6--6--------4--6--6-----4--------6--4-----
G|--3--5-----------3--5-----------5-----------------5--
D|-----------------------------------------------------
A|-----------------------------------------------------
E|-----------------------------------------------------

You gotta go and get angry at all of my honesty
E|-----------------------------------------------
B|-----------------------------------------------
G|-----3--3--3--------3--3--3--3-----------------
D|--6-----------5--6--------------6--5--3--3--5--
A|-----------------------------------------------
E|-----------------------------------------------

You know I try but I don't do too well with apologies
E|-----------------------------------------------
B|-----------------------------------------------
G|-----3--3--3--------3--3--3--3-----------------
D|--6-----------5--6--------------6--5--3--3--5--
A|-----------------------------------------------
E|-----------------------------------------------

I hope I don't run out of time, could someone call a referee?
E|--------------------------------------------------
B|--------------------------------------------------
G|--------3--3--3--------3--3--3--3-----------------
D|--3--6-----------5--6--------------6--5--3--3--5--
A|--------------------------------------------------
E|--------------------------------------------------

Cause I just need one more shot at forgiveness
E|--------------------------------------------
B|--------------------------------------------
G|--------------------------------------------
D|--3-----3--5--5-----6--5--5-----5--5--5--3--
A|-----6-----------6--------------------------
E|--------------------------------------------

I know you know that I made those mistakes maybe once or twice
By once or twice I mean maybe a couple a hundred times
So let me, oh let me redeem, oh redeem, oh myself tonight
Cause I just need one more shot at second chances.(Same As Part 1)

Yeah, is it too late now to say sorry? Cause I'm
E|-----------------------------3--------
B|--4-----4--4--4--4-----4--6--------4--
G|-----5--------------3-----------3-----
D|--------------------------------------
A|--------------------------------------
E|--------------------------------------

missing more than just your body
E|--------------------3--------
B|-----4--4--4--4--------------
G|--5--------------5-----5--3--
D|-----------------------------
A|-----------------------------
E|-----------------------------

Is it too late now to say sorry?
E|--------------------------3--
B|-----4--4--4--4-----4--6-----
G|--5--------------3-----------
D|-----------------------------
A|-----------------------------
E|-----------------------------

Yeah I know that I let you down
E|-----3--6--3--------3-----------
B|--6-----------6--6-----6-----4--
G|--------------------------3-----
D|--------------------------------
A|--------------------------------
E|--------------------------------

Is it too late to say I'm sorry now?
E|-----6--3--------3-----------
B|--4--------6--6-----6-----4--
G|-----------------------3-----
D|-----------------------------
A|-----------------------------
E|-----------------------------
tabs and chords, guitar tabs, music contests, music covers, songsterr, reverbnation, renditions, tabulature, bollywood chords, ultimate guitar, yousician, guitar lessons, torrins, fender, gibson, acoustic guitar, electric guitar, youtube covers, gootar, guitar tuner, A-Z tabs, 911 tabs