Guitar Tabs for Song That Reminds Me Of Life Is Strange

(/) Slide Up  (\) Slide Down  (h) Hammer On  (p) Pull Off  (b) Bend (r) Release (v) Vibrato (x) Muted

Tabs for Song : 

Song lyrics here
E|-----------2-----------2-----------2-----------2-----------0-----------0-----------0-----------0-----------0-----------0-----------0-----------0--------------------------------------------------
B|-----3-----------3-----------3-----------3-----------2-----------2-----------2-----------2-----------0-----------0-----------0-----------0-----------------3-----------3-----------3-----------3--
G|--------2-----------2-----------2-----------2-----------2-----------2-----------2-----------2-----------2-----------2-----------2-----------2--------2-----------2-----------2-----------2--------
D|--0-----------0-----------0-----------0-----------2-----------2-----------2-----------2-----------------------------------------------------------------4-----------4-----------4-----------4-----
A|--------------------------------------------------------------------------------------------------4-----------4-----------4-----------4-----------2-----------2-----------2-----------2-----------
E|--------------------------------------------------------------------------------------------------------------------------------------------------------------------------------------------------
Song lyrics here
E|--2-----------------------------------------------0-----------------------------------------------0-----------------------------------------------2-----------------------------------------------
B|--3-----------------------------------------------2-----------------------------------------------0-----------------------------------------------4-----------------------------------------------
G|--2-----------------------------------------------2-----------------------------------------------2-----------------------------------------------2-----------------------------------------------
D|--0-----------------------------------------------2-----------------------------------------------2-----------------------------------------------4-----------------------------------------------
A|--------------------------------------------------------------------------------------------------4-----------------------------------------------2-----------------------------------------------
E|--------------------------------------------------------------------------------------------------------------------------------------------------------------------------------------------------

Now supports capo and sound effects for vibrato/pull-off/hammer/bends/mutes etc !!! Checkout help section
tabs and chords, guitar tabs, music transcription, music technology, deep learning, music information retrieval, transcribe into tabs & chords, chordify, music renditions, songsterr, reverbnation, tabulature, bollywood chords, ultimate guitar, yousician, guitar lessons, acoustic guitar, electric guitar, guitar tuner, 911 tabs