Guitar Tabs for Song Sung Blue- Neil Diamond

(/) Slide Up  (\) Slide Down  (h) Hammer On  (p) Pull Off  (b) Bend (r) Release (v) Vibrato (x) Muted

Tabs & Chords
BPM : 110.0
Check Track 2 for Chord Positions 

    C                                            Am                         C                    
E|--0--------3-----0-----------1-----0--1--------0--------3-----0-----------------1-----0--------
B|-----1-----------------1-----------------3--1-----1--------------1--------1-----------------3--
G|--------------------------0--------------------------0--------------0--------0-----------------
D|-----------------------------------------------------------------------------------------------
A|-----------------------------------------------------------------------------------------------
E|-----------------------------------------------------------------------------------------------

                                                    Am          F           G                 C  
E|--------------3-----0-----------1-----0--------0--------3-----0-----1-----------------1--------
B|--1-----1-----------------1-----------------3-----1--------------1--------1--------------------
G|-----------0-----------------0-----------------------0-----------------------0-----0-----------
D|--------------------------------------------------------------------------------------------1--
A|-----------------------------------------------------------------------------------------------
E|-----------------------------------------------------------------------------------------------

                                              G                                               
E|--------------------------------------------------------------5-----------------------------
B|--------------------------------------------------------------------------------------------
G|--------------------------0-----------------------1--0-----0--------------------------------
D|--2--2-----------------4--------3--1--0-----0-----------------------0-----------------0--0--
A|-----------3-----3-----------------------3-----------------------------2-----4--------------
E|-----------------------------------------------------------------------------------3--------

                                                 C                                               
E|--------------------------3--------------------------------------------------------------------
B|--------------------------------------------------------------------------1-----------------1--
G|--------------0--------0-----------------------------0--0--------0-----0--------------3--------
D|--0-----------------------------3--2-----0--2--------------3-----------------------------------
A|-----------------------------------------------3-----------------------------------------------
E|--------3--------3-----------------------------------------------------------------------------

                         F                                         G                             
E|-----------------------------------------------------------------------------------------------
B|-----1-----------1-----------------------------------------------------------------------------
G|-----------3-----------2--2--------------------------------------------------------2-----------
D|--------------------------------3--------------------------4--------------0--0--------2-----0--
A|--------------------------------------------------------------------1--2-----------------------
E|-----------------------------------1-----1--0--1--1--1-----------3-----------------------------

                C                       Dm                G           C                          
E|--------------------------------------------------------------------------3--------------------
B|--------------------------------------------------1-----3-----3--------------------------------
G|--0--------------------------0--------------------------------------------------------0--------
D|--------3-----2-----2--0--------2-----0--0--------------------------2-----------------------4--
A|--------------------------------------------4--------------------------------3-----3-----------
E|-----------------------------------------------------------------------------------------------

             G                                                                                   
E|-----------------------7-----3-----3-----3--------3--3-----------------3-----------------------
B|-----------------------------------------------------------------------------------------------
G|-----------------0--------0-----------------0--------------------------------------0--0--------
D|--2--0-----0-----------------------------------------------0--0-----0--------------------------
A|--------3-----------------------------------------------------------------------------------0--
E|--------------------------------------------------------------------------3-----3--------------

                C                                                                             
E|-----------------3-----------3--3--------3-----3--------------------------------------------
B|-----------------------------------------------------------------1-----------------0--1-----
G|-----------------------1--0--------0-----------------3--2--------------3-----------------3--
D|--3--2--0-----2--------------------------------------------2-----------------2--------------
A|--------------------3-----------------------------------------------------------------------
E|--------------------------------------------------------------------------------------------

    F                                            G                                      C     
E|--3--------------------------------0--------------------------------------------------------
B|-----------------------------1-----------------1-----------------0--------------------------
G|--------1--2-----1--2-----------------------------0-----------------0-----------------------
D|-----------------------------------------------------------0--------------0-----3-----3--2--
A|--------------------------------------------------------2-----------------------------------
E|-----1--------------------------------1-----2-----------------------------------------------

                G        C                                   G                                
E|--------------------------------------------1--0--------------3--3--3-----3--3--------------
B|--------------------------1--------------1-----------1-----3--------------------3-----------
G|-----------------------0-----0-----0-----------------------------------------------0--------
D|-----2--0-----0--0--------------------------------------------------------------------0--0--
A|--------------------------------------------------------------------------------------------
E|--------------------------------------------------------------------------------------------

                                                    C                                         
E|--------------3-----3--3--3--3--------0-----0-----3--3-----3-----3--------------------------
B|--------------------------------3--------3-----------------------------------------------1--
G|--------------------------------------------------------------------------------2--3--------
D|--------------------------------------------------------------------------------------2-----
A|--------------------------------------------------------------------0-----2-----------------
E|--3-----3--3--------------------------------------------------------------------------------

                   F                             G                                         C  
E|--------------------------------------------------------------------------------------------
B|-----------------------------------------------------------------------------3--------------
G|--------------------2-----------------------------------------------2--0--------------------
D|--------------------------3--------3-----------------0--0-----0--3-----------------3-----2--
A|--3--------------------------3-----------3--------2-----------------------------------------
E|-----------------1-----------------------------3--------------------------------------------

                   G                       C                                               G  
E|--------------------------------20----------------------------------3-----------------------
B|--------------------------------------3-----------------------------------------------------
G|-----------------------------------------------------------------0-----0--------------------
D|-----2-----0-----------------------------1--2--------------------------------4--2--1-----0--
A|--------------------------2--0--------------------2--3-----3--4-----------------------3-----
E|-----------------3-----3--------------------------------------------------------------------

                                                                   C                          
E|--------3-----3--------------------------------3-----3--------------------------3--3-----3--
B|--------------------------------------------------------------------------------------------
G|--0-----------------------------------0-----0-----0--------------------0-----0--------------
D|--------------------0--------------------------------------0--------------------------------
A|-----------------4-----------------------------------------------3--3-----------------------
E|--------------------------3-----3--4--------------------------------------------------------

                                                                F                                
E|--------3-----------------------3-----------------------------------------------1--------------
B|--1-----------------1-----------------------0--1-----------------------------------------------
G|-----------3--------------0--------3--------------3--2--3-----2-----2--------------------------
D|--------------2--------------------------2-----------------------------3-----3--------0-----4--
A|-----------------------------------------------------------------------------------------------
E|-----------------------------------------------------------------------------------------------

       G                                C                 G              C                       
E|--------------------------------------------------------3--------3--3--------------------------
B|--------------------------------------------------------------3--------------------------------
G|--------------------0-----2-----------------------------------------------------------0-----0--
D|-----------0-----3--------------3-----3-----3-----2--------------------2--2--------------------
A|--------2-----------------------------------------------------------------------3--------------
E|-----3-----------------------------------------------------------------------------------------

             G                                                        
E|-----3-----3--3-----3--------------------------------------------3--
B|--------------------------3-----------------------------------------
G|--------------------------------------------------------0-----0-----
D|-----------------------------------0-----0--------------------------
A|--------------------------------------------------------------------
E|--------------------------------3--------------3-----3--------------

Guitar Tabs for Song Sung Blue- Neil Diamond






    C                                            Am                         C                    
E|--0--------------------------------------------0--------------------------0--------------------
B|--1--------------------------------------------1--------------------------1--------------------
G|--0--------------------------------------------2--------------------------0--------------------
D|--2--------------------------------------------2--------------------------2--------------------
A|--3--------------------------------------------0--------------------------3--------------------
E|-----------------------------------------------------------------------------------------------

                                                    Am          F           G                 C  
E|--------------------------------------------------0-----------1-----------3-----------------0--
B|--------------------------------------------------1-----------1-----------3-----------------1--
G|--------------------------------------------------2-----------2-----------4-----------------0--
D|--------------------------------------------------2-----------3-----------5-----------------2--
A|--------------------------------------------------0-----------3-----------5-----------------3--
E|--------------------------------------------------------------1-----------3--------------------

                                              G                                               
E|--------------------------------------------3-----------------------------------------------
B|--------------------------------------------3-----------------------------------------------
G|--------------------------------------------4-----------------------------------------------
D|--------------------------------------------5-----------------------------------------------
A|--------------------------------------------5-----------------------------------------------
E|--------------------------------------------3-----------------------------------------------

                                                 C                                               
E|-----------------------------------------------0-----------------------------------------------
B|-----------------------------------------------1-----------------------------------------------
G|-----------------------------------------------0-----------------------------------------------
D|-----------------------------------------------2-----------------------------------------------
A|-----------------------------------------------3-----------------------------------------------
E|-----------------------------------------------------------------------------------------------

                         F                                         G                             
E|-----------------------1-----------------------------------------3-----------------------------
B|-----------------------1-----------------------------------------3-----------------------------
G|-----------------------2-----------------------------------------4-----------------------------
D|-----------------------3-----------------------------------------5-----------------------------
A|-----------------------3-----------------------------------------5-----------------------------
E|-----------------------1-----------------------------------------3-----------------------------

                C                       Dm                G           C                          
E|--------------0-----------------------1-----------------3-----------0--------------------------
B|--------------1-----------------------3-----------------3-----------1--------------------------
G|--------------0-----------------------2-----------------4-----------0--------------------------
D|--------------2-----------------------0-----------------5-----------2--------------------------
A|--------------3-----------------------------------------5-----------3--------------------------
E|--------------------------------------------------------3--------------------------------------

             G                                                                                   
E|-----------3-----------------------------------------------------------------------------------
B|-----------3-----------------------------------------------------------------------------------
G|-----------4-----------------------------------------------------------------------------------
D|-----------5-----------------------------------------------------------------------------------
A|-----------5-----------------------------------------------------------------------------------
E|-----------3-----------------------------------------------------------------------------------

                C                                                                             
E|--------------0-----------------------------------------------------------------------------
B|--------------1-----------------------------------------------------------------------------
G|--------------0-----------------------------------------------------------------------------
D|--------------2-----------------------------------------------------------------------------
A|--------------3-----------------------------------------------------------------------------
E|--------------------------------------------------------------------------------------------

    F                                            G                                      C     
E|--1--------------------------------------------3--------------------------------------0-----
B|--1--------------------------------------------3--------------------------------------1-----
G|--2--------------------------------------------4--------------------------------------0-----
D|--3--------------------------------------------5--------------------------------------2-----
A|--3--------------------------------------------5--------------------------------------3-----
E|--1--------------------------------------------3--------------------------------------------

                G        C                                   G                                
E|--------------3--------0-----------------------------------3--------------------------------
B|--------------3--------1-----------------------------------3--------------------------------
G|--------------4--------0-----------------------------------4--------------------------------
D|--------------5--------2-----------------------------------5--------------------------------
A|--------------5--------3-----------------------------------5--------------------------------
E|--------------3--------------------------------------------3--------------------------------

                                                    C                                         
E|--------------------------------------------------0-----------------------------------------
B|--------------------------------------------------1-----------------------------------------
G|--------------------------------------------------0-----------------------------------------
D|--------------------------------------------------2-----------------------------------------
A|--------------------------------------------------3-----------------------------------------
E|--------------------------------------------------------------------------------------------

                   F                             G                                         C  
E|-----------------1-----------------------------3-----------------------------------------0--
B|-----------------1-----------------------------3-----------------------------------------1--
G|-----------------2-----------------------------4-----------------------------------------0--
D|-----------------3-----------------------------5-----------------------------------------2--
A|-----------------3-----------------------------5-----------------------------------------3--
E|-----------------1-----------------------------3--------------------------------------------

                   G                       C                                               G  
E|-----------------3-----------------------0-----------------------------------------------3--
B|-----------------3-----------------------1-----------------------------------------------3--
G|-----------------4-----------------------0-----------------------------------------------4--
D|-----------------5-----------------------2-----------------------------------------------5--
A|-----------------5-----------------------3-----------------------------------------------5--
E|-----------------3-----------------------------------------------------------------------3--

                                                                   C                          
E|-----------------------------------------------------------------0--------------------------
B|-----------------------------------------------------------------1--------------------------
G|-----------------------------------------------------------------0--------------------------
D|-----------------------------------------------------------------2--------------------------
A|-----------------------------------------------------------------3--------------------------
E|--------------------------------------------------------------------------------------------

                                                                F                                
E|--------------------------------------------------------------1--------------------------------
B|--------------------------------------------------------------1--------------------------------
G|--------------------------------------------------------------2--------------------------------
D|--------------------------------------------------------------3--------------------------------
A|--------------------------------------------------------------3--------------------------------
E|--------------------------------------------------------------1--------------------------------

       G                                C                 G              C                       
E|-----3--------------------------------0-----------------3--------------0-----------------------
B|-----3--------------------------------1-----------------3--------------1-----------------------
G|-----4--------------------------------0-----------------4--------------0-----------------------
D|-----5--------------------------------2-----------------5--------------2-----------------------
A|-----5--------------------------------3-----------------5--------------3-----------------------
E|-----3--------------------------------------------------3--------------------------------------

             G                                                        
E|-----------3--------------------------------------------------------
B|-----------3--------------------------------------------------------
G|-----------4--------------------------------------------------------
D|-----------5--------------------------------------------------------
A|-----------5--------------------------------------------------------
E|-----------3--------------------------------------------------------

tabs and chords, guitar tabs, music transcription, music technology, deep learning, music information retrieval, transcribe into tabs & chords, chordify, music renditions, songsterr, reverbnation, tabulature, bollywood chords, ultimate guitar, yousician, guitar lessons, acoustic guitar, electric guitar, guitar tuner, 911 tabs