Guitar Tabs for Song 20 Intro

(/) Slide Up  (\) Slide Down  (h) Hammer On  (p) Pull Off  (b) Bend (r) Release (v) Vibrato (x) Muted

Tabs & Chords
BPM : 85.0
Check Track 2 for Chord Positions 

       Fm    F              C           F     Dm             F                 A#             
E|--------------------------------------------------------------1--------------------3--------
B|--------------------------------------------------------------------------------------------
G|-----------------------------0-----0--2--1--------------------------------------------------
D|--------1--3--------2-----3-----------------0-----1--3--------------------------------1--3--
A|-----2--------3--3-----2--------------------------------3--3-----0--3-----1--1--1-----------
E|--1-----------------------------------------------------------------------------------------

                F                 Gm                      C                 F                 
E|-----------------------------------3-----------1-----------------0--------------------------
B|--------------1-----------------------------------------------------1-----------------------
G|-----------------------0-----2--3-----2--0--------0-----0-----0-----------------1--2--------
D|--------------------4-----------------------3--------------3-----------------3--------3--3--
A|--3--3--3--------4--------------------------------------------------------------------------
E|-----------------------------------------------------------------------1--1-----------------

          C              F  Dm                         Am    F     A#                      F  
E|-----------------------1-----------------------------0--------------------------------------
B|-----------------------------------------------------------------3--------------------------
G|-----0--0--0--0-----------------0--2-----------------------------------1--2-----------0--2--
D|-----------------3--------2--3--------3--2--3-----2--------------------------3--3-----------
A|--------------------------------------------------------0--0--------------------------------
E|--------------------------------------------------------------------------------------------

          
E|--------
B|--------
G|--0-----
D|-----3--
A|--------
E|--------

Guitar Tabs for Song 20 Intro






       Fm    F              C           F     Dm             F                 A#             
E|-----1-----1--------------0-----------1-----1--------------1-----------------1--------------
B|-----1-----1--------------1-----------1-----3--------------1-----------------3--------------
G|-----1-----2--------------0-----------2-----2--------------2-----------------3--------------
D|-----3-----3--------------2-----------3-----0--------------3-----------------3--------------
A|-----3-----3--------------3-----------3--------------------3-----------------1--------------
E|-----1-----1--------------------------1--------------------1--------------------------------

                F                 Gm                      C                 F                 
E|--------------1-----------------3-----------------------0-----------------1-----------------
B|--------------1-----------------3-----------------------1-----------------1-----------------
G|--------------2-----------------3-----------------------0-----------------2-----------------
D|--------------3-----------------5-----------------------2-----------------3-----------------
A|--------------3-----------------5-----------------------3-----------------3-----------------
E|--------------1-----------------3-----------------------------------------1-----------------

          C              F  Dm                         Am    F     A#                      F  
E|--------0--------------1--1--------------------------0-----1-----1-----------------------1--
B|--------1--------------1--3--------------------------1-----1-----3-----------------------1--
G|--------0--------------2--2--------------------------2-----2-----3-----------------------2--
D|--------2--------------3--0--------------------------2-----3-----3-----------------------3--
A|--------3--------------3-----------------------------0-----3-----1-----------------------3--
E|-----------------------1-----------------------------------1-----------------------------1--

          
E|--------
B|--------
G|--------
D|--------
A|--------
E|--------

tabs and chords, guitar tabs, music transcription, music technology, deep learning, music information retrieval, transcribe into tabs & chords, chordify, music renditions, songsterr, reverbnation, tabulature, bollywood chords, ultimate guitar, yousician, guitar lessons, acoustic guitar, electric guitar, guitar tuner, 911 tabs