Guitar Tabs for Solo For Matt's Riff

(/) Slide Up  (\) Slide Down  (h) Hammer On  (p) Pull Off  (b) Bend (r) Release (v) Vibrato (x) Muted

Tabs for Song : 

Song lyrics here
E|-----------------3--5---5b7------5b-7b5-----------------------------------------------------------------
B|---3h5------3h5--------------------------5--8---3b5-----8-----11-12----12-11-12-11-10-12----------------
G|-----------------------------------------------------------------------------------------9-----12-9--12-
D|--------------------------------------------------------------------------------------------------------
A|--------------------------------------------------------------------------------------------------------
E|--------------------------------------------------------------------------------------------------------

Song lyrics here
E|-----------------------------------------------------------------------------------------
B|-----11h12v------------------------------------------------------------------------------
G|--9--------------------------------------------------------------------------------------
D|------------------------------------------------------------9h12-12p9--12p9--12b14v------
A|--------------------10h12-12b14b12-12b14b12-12b14b12-------------------------------------
E|--------------10h12----------------------------------12----------------------------------

E|--------------------------------------------------------12-
B|---------------8h12-12p10p8--12p10b8--12p10p8--12p10p8-----
G|---------9h12----------------------------------------------
D|---9h12----------------------------------------------------
A|-----------------------------------------------------------
E|-----------------------------------------------------------

E|--
B|--
G|--
D|--
A|--
E|--

Paste any tab in acousterr's tab maker and we'll play it !!!
Now supports capo and sound effects for vibrato/pull-off/hammer/bends/mutes etc !!! Checkout help section
tabs and chords, guitar tabs, music transcription, music technology, deep learning, music information retrieval, transcribe into tabs & chords, chordify, music renditions, songsterr, reverbnation, tabulature, bollywood chords, ultimate guitar, yousician, guitar lessons, acoustic guitar, electric guitar, guitar tuner, 911 tabs