Guitar Tabs for Somewhere Up High

 
BPM : 200

   
E|--0--------0--------0--------0--------0--------0--------0--------0--------1--------1--------3--------3--------3--------3--------
B|--1--------1--------0--------0--------1--------1--------1--------1--------3--------3--------3--------3--------3--------3--------
G|--0--------0--------0--------0--------2--------2--------2--------2--------2--------2--------0--------0--------0--------0--------
D|--2--------2--------2--------2--------2--------2--------2--------2--------0--------0--------2--------2--------0--------0--------
A|--3--------3--------2--------2--------0--------0--------0--------0--------------------------3--------3--------2--------2--------
E|--------------------0--------0--------------------------------------------------------------------------------------------------




BPM : 200

Song lyrics here 
E|--0--------0--------0--------0--------0--------0--------0--------0--------1--------1--------3--------3--------3--------3--------
B|--1--------1--------0--------0--------1--------1--------1--------1--------3--------3--------3--------3--------3--------3--------
G|--0--------0--------0--------0--------2--------2--------2--------2--------2--------2--------0--------0--------0--------0--------
D|--2--------2--------2--------2--------2--------2--------2--------2--------0--------0--------2--------2--------0--------0--------
A|--3--------3--------2--------2--------0--------0--------0--------0--------------------------3--------3--------2--------2--------
E|--------------------0--------0--------------------------------------------------------------------------------------------------

BPM : 200

Song lyrics here 
E|--0--------0--------0--------0--------0--------0--------0--------0--------1--------1--------3--------3--------3--------3-----
B|--1--------1--------0--------0--------1--------1--------1--------1--------3--------3--------3--------3--------3--------3-----
G|--0--------0--------0--------0--------2--------2--------2--------2--------2--------2--------0--------0--------0--------0-----
D|--2--------2--------2--------2--------2--------2--------2--------2--------0--------0--------2--------2--------0--------0-----
A|--3--------3--------2--------2--------0--------0--------0--------0--------------------------3--------3--------2--------2-----
E|--------------------0--------0-----------------------------------------------------------------------------------------------

Use manual mode to free up cursor. Paste any tab in acousterr tab maker and we'll play it !!!


Song lyrics here 
E|--0--------0--------0--------0--------1--------1--------3--------3--------0--------0--------0--------0--
B|--1--------1--------0--------0--------3--------3--------3--------3--------1--------1--------0--------0--
G|--0--------0--------0--------0--------3--------3--------4--------4--------0--------0--------0--------1--
D|--2--------2--------2--------2--------3--------3--------5--------5--------2--------2--------2--------2--
A|--3--------3--------2--------2--------1--------1--------5--------5--------3--------3--------2--------2--
E|--------------------0--------0--------1--------1--------3--------3--------------------------0--------0--

E|-----1--------1--------3--------3--------0--------0--------0--------0--------1--------1--------3--------3--
B|-----3--------3--------3--------3--------1--------1--------0--------0--------3--------3--------3--------3--
G|-----3--------3--------4--------4--------0--------0--------0--------0--------3--------3--------4--------4--
D|-----3--------3--------5--------5--------2--------2--------2--------2--------3--------3--------5--------5--
A|-----1--------1--------5--------5--------3--------3--------2--------2--------1--------1--------5--------5--
E|-----1--------1--------3--------3--------------------------0--------0--------1--------1--------3--------3--

E|-----0--------0--------0--------0--------1--------1--------3--------3-----
B|-----1--------1--------0--------0--------3--------3--------3--------3-----
G|-----0--------0--------0--------0--------3--------3--------4--------4-----
D|-----2--------2--------2--------2--------3--------3--------5--------5-----
A|-----3--------3--------2--------2--------1--------1--------5--------5-----
E|-----------------------0--------0--------1--------1--------3--------3-----

E|-----0--------0--------0--------0--------0--------0--------0--------0--------0--------0--------0--------0--------
B|-----1--------1--------0--------0--------1--------1--------1--------1--------1--------1--------1--------1--------
G|-----0--------0--------0--------0--------0--------0--------2--------2--------0--------0--------2--------2--------
D|-----2--------2--------2--------2--------2--------2--------2--------2--------2--------2--------2--------2--------
A|-----3--------3--------2--------2--------3--------3--------0--------0--------3--------3--------0--------0--------
E|-----------------------0--------0--------------------------------------------------------------------------------

E|--0--------0--------0--------0--------0--------0--------0--------0--------0--------0--------0--------0--------
B|--1--------1--------1--------1--------1--------1--------1--------1--------1--------1--------1--------1--------
G|--0--------0--------2--------2--------0--------0--------2--------2--------0--------0--------2--------2--------
D|--2--------2--------2--------2--------2--------2--------2--------2--------2--------2--------2--------2--------
A|--3--------3--------0--------0--------3--------3--------0--------0--------3--------3--------0--------0--------
E|--------------------------------------------------------------------------------------------------------------

E|--0--------0--------1--------0--------1--------1--------1--------1--------3--------3--------3--------3--
B|--1--------1--------3--------0--------1--------1--------1--------1--------3--------3--------3--------3--
G|--0--------0--------2--------0--------2--------2--------2--------2--------4--------4--------4--------4--
D|--2--------2--------0--------2--------3--------3--------3--------3--------5--------5--------5--------5--
A|--3--------3-----------------2--------3--------3--------3--------3--------5--------5--------5--------5--
E|-----------------------------0--------1--------1--------1--------1--------3--------3--------3--------3--

Use manual mode to free up cursor. Paste any tab in acousterr tab maker and we'll play it !!!






Song lyrics here 





E|--
B|--
G|--
D|--
A|--
E|--

Use manual mode to free up cursor. Paste any tab in acousterr tab maker and we'll play it !!!
tabs and chords, guitar tabs, music transcription, music technology, deep learning, music information retrieval, transcribe into tabs & chords, chordify, music renditions, songsterr, reverbnation, tabulature, bollywood chords, ultimate guitar, yousician, guitar lessons, acoustic guitar, electric guitar, guitar tuner, 911 tabs