Guitar Tabs for Something To Be Mad About Lead Guitar

(/) Slide Up  (\) Slide Down  (h) Hammer On  (p) Pull Off  (b) Bend (r) Release (v) Vibrato (x) Muted

Tabs for Song : 



E|--------------x--------------------x--x-----------------x--------------------x--
B|--------------x--------------------x--x-----------------x--------------------x--
G|--------------x--------------------x--x-----------------x--------------------x--
D|--11-11-11-11-x--11-11-11-11-11-11-x--x-----9--9--9--9--x--9--9--9--9--9--9--x--
A|--9--9--9--9--x--9--9--9--9--9--9--x--x-----7--7--7--7--x--7--7--7--7--7--7--x--
E|--------------x--------------------x--x-----------------x--------------------x--

E|-----------x--------------x--------------x--------------x--
B|-----------x--------------x--------------x--------------x--
G|-----------x--------------x--------------x--------------x--
D|--11-11----x--9--9--9-----x--7--7--7-----x--9--9--9-----x--
A|--9--9-----x--7--7--7-----x--5--5--5-----x--7--7--7-----x--
E|-----------x--------------x--------------x--------------x--

E|-----------------------------x-----------------------------12----
B|--14-12-10----10-10----10----x--14-12-10----10-10/12-12/14----14-
G|-----------11-------11----11-x-----------11----------------------
D|-----------------------------x-----------------------------------
A|-----------------------------x-----------------------------------
E|-----------------------------x-----------------------------------




ive been cut off, ive been cut out, done my shtick in hell but im back now
and to think that they though they could cut me down and let me rot
but they dont know enough and they dont love enough 
to notice pure gold intention i tried my best but we need progress
E|-----------------------x--
B|-----------------------x--
G|-----------------------x--
D|--11----7-----11----7--x--
A|--9-----5-----9-----5--x--
E|-----------------------x--



sometimes i think 
you'll come back 
but please stay gone
we dont need that
E|--------------x--------------------------------
B|--------------x--------------------------------
G|--------------x--------------------------------
D|--7--7--7--7--x--7--7--7--7--7--7--7-----7--7--
A|--5--5--5--5--x--5--5--5--5--5--5--5-----5--5--
E|--------------x--------------------------------

ive been cut off ive been cut out
ive been cut off ive been cut out
E|-----------------------------x-----------------------------------x--
B|-----------------------------x-----------------------------------x--
G|-----------------------------x-----------------------------9-----x--
D|--11-9--7-----7--7-----7-----x--11-9--7-----7---7/9---9/11----11-x--
A|-----------9--------9-----9--x-----------9-----------------------x--
E|-----------------------------x-----------------------------------x--


but they dont know enough, but they dont know enough
and they dont love enough, and they dont love enough
E|--------------------------------------------------x--------------------------------------------------------
B|--------------------------------------------------x--------------------------------------------------------
G|--------------------------------------------------x--------------------------------------------------------
D|--11-11-11-9--9--9--9--7--7--7--7--9--9--9--9--9--x--11-11-11-9--9--9--9--7--7--7--7------7/9---9/11-11-11-=
A|--------------------------------------------------x-----------------------------------9--------------------
E|--------------------------------------------------x--------------------------------------------------------


E|--------------x--------------------x--x-----------------x--------------------x--
B|--------------x--------------------x--x-----------------x--------------------x--
G|--------------x--------------------x--x-----------------x--------------------x--
D|--11-11-11-11-x--11-11-11-11-11-11-x--x-----9--9--9--9--x--9--9--9--9--9--9--x--
A|--9--9--9--9--x--9--9--9--9--9--9--x--x-----7--7--7--7--x--7--7--7--7--7--7--x--
E|--------------x--------------------x--x-----------------x--------------------x--


E|-----------x--------------x--------------x--------------x--
B|-----------x--------------x--------------x--------------x--
G|-----------x--------------x--------------x--------------x--
D|--11-11----x--9--9--9-----x--7--7--7-----x--9--9--9-----x--
A|--9--9-----x--7--7--7-----x--5--5--5-----x--7--7--7-----x--
E|-----------x--------------x--------------x--------------x--

get so worked up get so messed up
thinking i was that easy to
exposed of .. and i guess i 
was
E|--------------x--------------x--------------x--------------x--
B|--------------x--------------x--------------x--------------x--
G|--------------x--------------x--------------x--------------x--
D|--11----------x--9-----------x--11----------x--9-----------x--
A|--9-----------x--7-----------x--9-----------x--7-----------x--
E|--------------x--------------x--------------x--------------x--

and it hurts like a bad tooth                        but i aint sad man we've seen growth too
E|--------------------------------------------------x--------------------------------------
B|--------------------------------------------------x--------------------------------------
G|--------------------------------------------------x--------------------------------------
D|--11-11-11-11-9--9--9--9--7--7--7--7--9--9--9--9--x--11-11-11-11-9--9--9--9--7--7--7--7--
A|--9--9--9--9--7--7--7--7--5--5--5--5--7--7--7--7--x--9--9--9--9--7--7--7--7--5--5--5--5--
E|--------------------------------------------------x--------------------------------------


It just took some
time
E|--------------x-----------------x--
B|--------------x-----------------x--
G|--------------x-----------------x--
D|--11----------x--9--------------x--
A|--9-----------x--7--------------x--
E|--------------x-----------------x--

whoop!
E|-----------------------x-----------------------------12-
B|--14-12-10----10-------x--14-12-10----10-12-12/14-14----
G|-----------11----11v---x-----------11-------------------
D|-----------------------x--------------------------------
A|-----------------------x--------------------------------
E|-----------------------x--------------------------------

the stride returns to a stumble
as i writhe in introspection
thinkin god damn, thinkin fuck this      
i have worth whether or not im missed     
E|--------------------x--------------------
B|--------------------x--------------------
G|--------------------x--------------------
D|--11-11-11-11-11-11-x-----9--9--9--7--7--
A|--9--9--9--9--9--9--x-----7--7--7--5--5--
E|--------------------x--------------------

wasted pure gold intention
tried by my best but you need progress
E|--------------x--------------x--
B|--------------x--------------x--
G|--------------x--------------x--
D|--11----------x--9-----------x--
A|--9-----------x--7-----------x--
E|--------------x--------------x--

sometimes i think 
you'll come back 
but please stay gone
we dont need that
E|--------------x--------------------------------
B|--------------x--------------------------------
G|--------------x--------------------------------
D|--7--7--7--7--x--7--7--7--7--7--7--7-----7--7--
A|--5--5--5--5--x--5--5--5--5--5--5--5-----5--5--
E|--------------x--------------------------------

sometimes i think
its so bad
i could never forgive
all the shit from our past, stay
E|--------------x--------------------------------
B|--------------x--------------------------------
G|--------------x--------------------------------
D|--7--7--7--7--x--7--7--7--7--7--7--7-----7--7--
A|--5--5--5--5--x--5--5--5--5--5--5--5-----5--5--
E|--------------x--------------------------------

back
E|--------------x--------------------x--x-----------------x--------------------x--
B|--------------x--------------------x--x-----------------x--------------------x--
G|--------------x--------------------x--x-----------------x--------------------x--
D|--11-11-11-11-x--11-11-11-11-11-11-x--x-----9--9--9--9--x--9--9--9--9--9--9--x--
A|--9--9--9--9--x--9--9--9--9--9--9--x--x-----7--7--7--7--x--7--7--7--7--7--7--x--
E|--------------x--------------------x--x-----------------x--------------------x--


E|-----------x--------------x--------------x--------------x--
B|-----------x--------------x--------------x--------------x--
G|-----------x--------------x--------------x--------------x--
D|--11-11----x--9--9--9-----x--7--7--7-----x--9--9--9-----x--
A|--9--9-----x--7--7--7-----x--5--5--5-----x--7--7--7-----x--
E|-----------x--------------x--------------x--------------x--


|-----------------------------x-------------------------- ---12----
B|--14-12-10----10-10----10----x--14-12-10----10-10/12-12/14----14-
G|-----------11-------11----11-x-----------11----------------------
D|-----------------------------x-----------------------------------
A|-----------------------------x-----------------------------------
E|-----------------------------x-----------------------------------



Now supports capo and sound effects for vibrato/pull-off/hammer/bends/mutes etc !!! Checkout help section
tabs and chords, guitar tabs, music contests, music covers, songsterr, reverbnation, renditions, tabulature, bollywood chords, ultimate guitar, yousician, guitar lessons, torrins, fender, gibson, acoustic guitar, electric guitar, youtube covers, gootar, guitar tuner, A-Z tabs, 911 tabs