Guitar Tabs for Something Else - Stray Cats (bass)

(/) Slide Up  (\) Slide Down  (h) Hammer On  (p) Pull Off  (b) Bend (r) Release (v) Vibrato (x) Muted

Tabs for Song : 
BPM : 149
Into riff & main riff
E|----------------------------------------------
B|-----------------------------------------------
G|-----------------------------------------------
D|-----------------------------------------------
A|-----------4--5--5--5--4--5--5--5--4--5--5--5--
E|--5--7--7--------------------------------------


            A-look-a-there    Here she comes 
E|-----------------------------------------------
B|-----------------------------------------------
G|-----------------------------------------------
D|-----------------------------------------------
A|-----------------------5--5--------------5--5--
E|--5--5--5--------------------------------------
              Here comes that girl again...
E|-----------------------------------------------
B|-----------------------------------------------
G|-----------------------------------------------
D|-----------------------------------------------
A|-----------4--5--5--5--4--5--5--5--4--5--5--5--
E|--5--7--7--------------------------------------

    But she don't notice me when I pass 
E|--------------------------
B|--------------------------
G|--------------------------
D|--------------------------
A|-----4--7--4-----4--7--4--
E|--5-----------5-----------
    She goes with older guys from out of my class
E|--------------------------
B|--------------------------
G|--------------------------
D|--------------------------
A|-----2--5--2-----2--5--2--
E|--3-----------3-----------
    But that can't stop me from a-thinkin' to myself
E|--------------------------
B|--------------------------
G|--------------------------
D|--------------------------
A|-----4--7--4-----2--5--2--
E|--5-----------3-----------
     She's sure fine lookin' man,  She's somethin' else
E|-----------------------------------
B|-----------------------------------
G|-----------------------------------
D|-----------------------------------
A|--5-----------------------------5--
E|-----------------------------------

E|--
B|--
G|--
D|--
A|--
E|--

Use manual mode to free up cursor. Paste any tab in acousterr tab maker and we'll play it !!!
tabs and chords, guitar tabs, music transcription, music technology, deep learning, music information retrieval, transcribe into tabs & chords, chordify, music renditions, songsterr, reverbnation, tabulature, bollywood chords, ultimate guitar, yousician, guitar lessons, acoustic guitar, electric guitar, guitar tuner, 911 tabs