Guitar Tabs for Somebody's me - Enrique Tabs

Tabs for song : Somebody's me

Intro


E|-----------------------------------------------
B|-----------------------------------------------
G|-----------5-----------------------6--6--------
D|--6-----8-----8--6--8-----6--------------10----
A|-----------------------------8-----------------
E|-----------------------------------------------

E|-----------------------------------------------
B|-----------------------------------------------
G|-----------5-----------------------6--6--------
D|--6-----8-----8--6--8-----6--------------10----
A|-----------------------------8-----------------
E|-----------------------------------------------


You, do you remember me
E|-----------------------------------
B|-----------------------------------
G|--5-----------6--5-----------5-----
D|--------8--10-------8--6--8--------
A|-----------------------------------
E|-----------------------------------

Like I remember you?
E|-----------------------------
B|-----------------------------
G|--5--6-----5--3--------5-----
D|-----------------6--8--------
A|-----------------------------
E|-----------------------------


Do you spend your life
E|--------------------
B|--------------------
G|--5--5--6--5--3-----
D|--------------------
A|--------------------
E|--------------------


Going back in your mind to that time?
E|--------------------------------
B|--------------------------------
G|--3--3--3--5-----3--5-----3-----
D|--------------6--------6--------
A|--------------------------------
E|--------------------------------

'Cause I, I walk the streets alone
E|--------------------------------------
B|--------------------------------------
G|--3---3h5-----5--6--5--------3--5-----
D|-----------------------8--6-----------
A|--------------------------------------
E|--------------------------------------

I hate being on my own
E|-----------------------------
B|-----------------------------
G|--5--6-----5--3------3h5-----
D|-----------------6-----------
A|-----------------------------
E|-----------------------------

And everyone can see that 
E|-----------------------------
B|-----------------------------
G|--5--5--5-----6--5--3--------
D|-----------------------6-----
A|-----------------------------
E|-----------------------------

I really fell and I'm going through hell
E|--------------------------------------
B|--------------------------------------
G|--3--5-----3-----3--3--3--5-----3-----
D|--------6--------------------6--------
A|--------------------------------------
E|--------------------------------------

Thinking about you with somebody else
E|--------------------------------
B|--------------------------------
G|--3--3--3--5-----3--5-----3-----
D|--------------6--------6--------
A|--------------------------------
E|--------------------------------

Somebody wants you
E|-----------------------
B|--------4---4/6--4-----
G|--5--6-----------------
D|-----------------------
A|-----------------------
E|-----------------------

Somebody needs you
E|-----------------------
B|--------4---4/6--4-----
G|--5--6-----------------
D|-----------------------
A|-----------------------
E|-----------------------

Somebody dreams about you every single night
E|--------------------------------------------
B|--------4---4/9--4--4-----------------------
G|--5--6-----------------5--6--5--3-----------
D|-----------------------------------6--6-----
A|--------------------------------------------
E|--------------------------------------------

Somebody can't breathe,
E|-----------------------
B|--------4---4/6--4-----
G|--5--6-----------------
D|-----------------------
A|-----------------------
E|-----------------------

without you it's lonely
E|--------------------------
B|-----------4---4/6--4-----
G|--5--5--6-----------------
D|--------------------------
A|--------------------------
E|--------------------------

Somebody hopes that one day you will see
E|--------------------------------------
B|--------4---4/9--4--------------------
G|--5--6--------------5--6--5--3--------
D|--------------------------------6-----
A|--------------------------------------
E|--------------------------------------

That somebody's me 
E|-----------------------
B|-----------------------
G|-----6--6--5--6--5-----
D|--6--------------------
A|-----------------------
E|-----------------------

That somebody's me 
E|-----------------------
B|-----------------------
G|-----6--6--5--6--5-----
D|--6--------------------
A|-----------------------
E|-----------------------

tabs and chords, guitar tabs, music transcription, music technology, deep learning, music information retrieval, transcribe into tabs & chords, chordify, music renditions, songsterr, reverbnation, tabulature, bollywood chords, ultimate guitar, yousician, guitar lessons, acoustic guitar, electric guitar, guitar tuner, 911 tabs