Guitar Tabs for Solo

(/) Slide Up  (\) Slide Down  (h) Hammer On  (p) Pull Off  (b) Bend (r) Release (v) Vibrato (x) Muted

Tabs for Song : 
BPM : 200

Song lyrics here 
E|-----------------------------------------------------------------------------------
B|-----------------------------------------------------------------------------------
G|--------------------------------------------------------------------7------7\4-----
D|--------------13----13-12----------------11\9-----------7-----7--9-----------------
A|-----------14-------------13----13\9------9\7-----7--9-----------------------------
E|--12----12-------------------------------------------------------------------------

E|-----------------------------------------------------------------
B|-----------------------------------------------------------------
G|--4--6-----------4--6-----4--6-----4--6-----4--6-----------------
D|--------6~-------------6--------6--------6--------6-6/1313-13-13-
A|-----------------------------------------------------------------
E|-----------------------------------------------------------------

E|-----------------------------------------------------------------------------------------------
B|-----------------------------------------------------------------------------------------------
G|--16-18----16-18----16-18----16-16-16-16-16-18-20----18-20----18-20-------18-18-20-20-20-20-20-
D|--------18-------18-------18-18-18-18-18-18-------20-------20-------20-20-20-20-22-22-22-22-20-
A|-----------------------------------------------------------------------------------------------
E|-----------------------------------------------------------------------------------------------

E|--
B|--
G|--
D|--
A|--
E|--
tabs and chords, guitar tabs, music transcription, music technology, deep learning, music information retrieval, transcribe into tabs & chords, chordify, music renditions, songsterr, reverbnation, tabulature, bollywood chords, ultimate guitar, yousician, guitar lessons, acoustic guitar, electric guitar, guitar tuner, 911 tabs