Guitar Tabs for Society

(/) Slide Up  (\) Slide Down  (h) Hammer On  (p) Pull Off  (b) Bend (r) Release (v) Vibrato (x) Muted

Tabs for Song : 
BPM : 100

Song lyrics here 
E|-----------------------------------------------------------------------------
B|-----------------------------------------7-----------7--10----10/12----12-10-
G|--------------7-----7--9-----9------7/9-----------7--------------------------
D|--7---7/9--------------------------------------------------------------------
A|-----------------------------------------------------------------------------
E|--------------------------------------------------------------------------

Song lyrics here 
E|-----------------------------------------------------------------------------------------------------------
B|-----7--8-----8-----8--7-----------------7-----7-----------------------------------------------------------
G|--7--------------------------9-----7--9-----------9-----7--7-----------------7-----7---9b---9--9-----7-----
D|-----------------------------------------------------------------9------7h9-----------------------------9--
A|-----------------------------------------------------------------------------------------------------------
E|-----------------------------------------------------------------------------------------------------------

Use manual mode to free up cursor. Paste any tab in acousterr tab maker and we'll play it !!!
E|--------------------------------------------------------------------------------
B|--8-----8-----8--8-----8---7b------7--7-----------------------------------------
G|--------------------------------------------9--7--9--------9--9------7b---------
D|--------------------------------------------------------------------------9-----
A|--------------------------------------------------------------------------------
E|--------------------------------------------------------------------------------
tabs and chords, guitar tabs, music transcription, music technology, deep learning, music information retrieval, transcribe into tabs & chords, chordify, music renditions, songsterr, reverbnation, tabulature, bollywood chords, ultimate guitar, yousician, guitar lessons, acoustic guitar, electric guitar, guitar tuner, 911 tabs