Guitar Tabs for Snow Hey Oh - Red Hot Chili Peppers

(/) Slide Up  (\) Slide Down  (h) Hammer On  (p) Pull Off  (b) Bend (r) Release (v) Vibrato (x) Muted

[Intro]
e|----------------------------------------------------|-----------------------------------------------------|
B|----------------------------------------------------|-----------------------------------------------------|
G|--------4------4h-6p4-----4--------4------4h-6p4----|------------------------------------6------6h-8p6----|
D|-----6-----6-----------6--------6-----6-----------6-|------4------4h-6p4-----4--------8-----8-----------8-|
A|--6--------------------------7----------------------|---6-----6-----------6------6/9----------------------|
E|----------------------------------------------------|7----------------------------------------------------|
X4

[Verse]
e|----------------------------------------------------|-----------------------------------------------------|
B|----------------------------------------------------|-----------------------------------------------------|
G|--------4------4h-6p4-----4--------4------4h-6p4----|------------------------------------6------6h-8p6----|
D|-----6-----6-----------6--------6-----6-----------6-|------4------4h-6p4-----4--------8-----8-----------8-|
A|--6--------------------------7----------------------|---6-----6-----------6------6/9----------------------|
E|----------------------------------------------------|7----------------------------------------------------|


[Bridge]
(repeat until chorus)
e|--7-----7-----7-----7-----7-----7-----7------7|7-----7-----7-----7-----7-----7-----7-----9----|
B|--9-----9-----9-----9-----9-----9-----9------9|9-----9-----9-----9-----9-----9-----9-----11---|
G|--8-----8-----8-----8-----8-----8-----8------8|8-----8-----8-----8-----8-----8-----8-----11---|
D|--9-----9-----9-----9-----9-----9-----9------9|9-----9-----9-----9-----9-----9-----9-----11---|
A|----------------------------------------------|-----------------------------------------------|
E|----------------------------------------------|-----------------------------------------------|

e|--11----11----11----11----11----11----11----11------|11----11----11----11----11----9--9--9----------|
B|--12----12----12----12----12----12----12----12------|12----12----12----12----12----11-11-11---------|
G|--13----13----13----13----13----13----13----13------|13----13----13----13----13----11-11-11---------|
D|--13----13----13----13----13----13----13----13------|13----13----13----13----13----11-11-11---------|
A|----------------------------------------------------|-----------------------------------------------|
E|----------------------------------------------------|-----------------------------------------------|

e|--7-----7-----7-----7-----7-----7-----7------7|7-----7-----7-----7-----7-----7-----7-----7----|
B|--9-----9-----9-----9-----9-----9-----9------9|9-----9-----9-----9-----9-----9-----9-----9----|
G|--8-----8-----8-----8-----8-----8-----8------8|8-----8-----8-----8-----8-----8-----8-----8----|
D|--9-----9-----9-----9-----9-----9-----9------9|9-----9-----9-----9-----9-----9-----9-----9----|
A|----------------------------------------------|-----------------------------------------------|
E|----------------------------------------------|-----------------------------------------------|


[Chorus]
(repeat until verse)
e|--7-----7-----7-----7-----7-----7-----7-----7-------|6-----6-----6-----6-----6-----6-----6-----6-------|
B|--7-----7-----7-----7-----7-----7-----7-----7-------|7-----7-----7-----7-----7-----7-----7-----7-------|
G|--8-----8-----8-----8-----8-----8-----8-----8-------|8-----8-----8-----8-----8-----8-----8-----8-------|
D|--9-----9-----9-----9-----9-----9-----9-----9-------|8-----8-----8-----8-----8-----8-----8-----8-------|
A|--9-----9-----9-----9-----9-----9-----9-----9-------|--------------------------------------------------|
E|----------------------------------------------------|--------------------------------------------------|

e|--11----11----11----11----11----11----11----11------|11----11----11----11----11----11----11----11------|
B|--12----12----12----12----12----12----12----12------|12----12----12----12----12----12----12----12------|
G|--13----13----13----13----13----13----13----13------|13----13----13----13----13----13----13----13------|
D|--------------------------13----13----13----13------|13----13----13----13----13----13----13----13------|
A|----------------------------------------------------|11----11----11----11----11----11----11----11------|
E|----------------------------------------------------|------------------------11----11----11----11------|


[Verse]
(repeat until bridge)
e|----------------------------------------------------|-----------------------------------------------------|
B|----------------------------------------------------|-----------------------------------------------------|
G|--------4------4h-6p4-----4--------4------4h-6p4----|------------------------------------6------6h-8p6----|
D|-----6-----6-----------6--------6-----6-----------6-|------4------4h-6p4-----4--------8-----8-----------8-|
A|--6--------------------------7----------------------|---6-----6-----------6------6/9----------------------|
E|----------------------------------------------------|7----------------------------------------------------|


[Bridge]
e|--7-----7-----7-----7-----7-----7-----7------7|7-----7-----7-----7-----7-----7-----7-----9----|
B|--9-----9-----9-----9-----9-----9-----9------9|9-----9-----9-----9-----9-----9-----9-----11---|
G|--8-----8-----8-----8-----8-----8-----8------8|8-----8-----8-----8-----8-----8-----8-----11---|
D|--9-----9-----9-----9-----9-----9-----9------9|9-----9-----9-----9-----9-----9-----9-----11---|
A|----------------------------------------------|-----------------------------------------------|
E|----------------------------------------------|-----------------------------------------------|

e|--11----11----11----11----11----11----11----11------|11----11----11----11----11----9--9--9----------|
B|--12----12----12----12----12----12----12----12------|12----12----12----12----12----11-11-11---------|
G|--13----13----13----13----13----13----13----13------|13----13----13----13----13----11-11-11---------|
D|--13----13----13----13----13----13----13----13------|13----13----13----13----13----11-11-11---------|
A|----------------------------------------------------|-----------------------------------------------|
E|----------------------------------------------------|-----------------------------------------------|

e|--7-----7-----7-----7-----7-----7-----7------7|7-----7-----7-----7-----7-----7-----7-----7----|
B|--9-----9-----9-----9-----9-----9-----9------9|9-----9-----9-----9-----9-----9-----9-----9----|
G|--8-----8-----8-----8-----8-----8-----8------8|8-----8-----8-----8-----8-----8-----8-----8----|
D|--9-----9-----9-----9-----9-----9-----9------9|9-----9-----9-----9-----9-----9-----9-----9----|
A|----------------------------------------------|-----------------------------------------------|
E|----------------------------------------------|-----------------------------------------------|


[Chorus]
(repeat untl outro/solo)
e|--7-----7-----7-----7-----7-----7-----7-----7-------|6-----6-----6-----6-----6-----6-----6-----6-------|
B|--7-----7-----7-----7-----7-----7-----7-----7-------|7-----7-----7-----7-----7-----7-----7-----7-------|
G|--8-----8-----8-----8-----8-----8-----8-----8-------|8-----8-----8-----8-----8-----8-----8-----8-------|
D|--9-----9-----9-----9-----9-----9-----9-----9-------|8-----8-----8-----8-----8-----8-----8-----8-------|
A|--9-----9-----9-----9-----9-----9-----9-----9-------|--------------------------------------------------|
E|----------------------------------------------------|--------------------------------------------------|

e|--11----11----11----11----11----11----11----11------|11----11----11----11----11----11----11----11------|
B|--12----12----12----12----12----12----12----12------|12----12----12----12----12----12----12----12------|
G|--13----13----13----13----13----13----13----13------|13----13----13----13----13----13----13----13------|
D|--------------------------13----13----13----13------|13----13----13----13----13----13----13----13------|
A|----------------------------------------------------|11----11----11----11----11----11----11----11------|
E|----------------------------------------------------|------------------------11----11----11----11------|


[Outro/solo] 
e|----------------------------------------|--------------------------------------|
B|---7-----------------7--------7---------|11----------------11-------11---------|
G|---9b11--------------9b11-----9b11------|13b15-------------13b15----13b15------|
D|----------------------------------------|--------------------------------------|
A|----------------------------------------|--------------------------------------|
E|----------------------------------------|--------------------------------------|

e|--16----------------16-------16---------|16----------------16-------16----16---|
B|--19b21-------------19b21----19b21------|19b21-------------19b21----19b21-19b21|
G|----------------------------------------|--------------------------------------|
D|----------------------------------------|--------------------------------------|
A|----------------------------------------|--------------------------------------|
E|----------------------------------------|--------------------------------------|

e|----------------------------------------|--------------------------------------|
B|---7-----------------7--------7---------|11----------------11-------11---------|
G|---9b11--------------9b11-----9b11------|13b15-------------13b15----13b15------|
D|----------------------------------------|--------------------------------------|
A|----------------------------------------|--------------------------------------|
E|----------------------------------------|--------------------------------------|

e|-------------------------------------|
B|--9----------------------------------|
G|--11b13------------------------------|
D|-------------------------------------|
A|-------------------------------------|
E|-------------------------------------|

tabs and chords, guitar tabs, music transcription, music technology, deep learning, music information retrieval, transcribe into tabs & chords, chordify, music renditions, songsterr, reverbnation, tabulature, bollywood chords, ultimate guitar, yousician, guitar lessons, acoustic guitar, electric guitar, guitar tuner, 911 tabs