Guitar Tabs for Smoke On The Water

(/) Slide Up  (\) Slide Down  (h) Hammer On  (p) Pull Off  (b) Bend (r) Release (v) Vibrato (x) Muted

Tabs for Song : Somke on the Water Intro Riff

Part 1 ( Repeat this as a loop)
E|--------------------------------------------------------------------------------
B|--------------------------------------------------------------------------------
G|--------3-----5--------------3-----6--5--------------3-----5--------3-----------
D|--5-----3-----5--------5-----3-----6--5--------5-----3-----5--------3-----5-----
A|--5--------------------5-----------------------5--------------------------5-----
E|--------------------------------------------------------------------------------

Part 2
E|-----------------------------------------------------
B|-----------------------------------------------------
G|-----------3-----3-----------------3-----3-----------
D|-----3--5--3--5--3--5--3--5--3--5--3--5--3--5--3--5--
A|-----3--5-----5-----5--3--5--3--5-----5-----5--3--5--
E|-----------------------------------------------------

Again part 1
E|-----------------------------------------------------------------------------------
B|-----------------------------------------------------------------------------------
G|-----------3-----5--------------3-----6--5--------------3-----5--------3-----------
D|-----5-----3-----5--------5-----3-----6--5--------5-----3-----5--------3-----5-----
A|-----5--------------------5-----------------------5--------------------------5-----
E|-----------------------------------------------------------------------------------




Now supports capo and sound effects for vibrato/pull-off/hammer/bends/mutes etc !!! Checkout help section
tabs and chords, guitar tabs, music transcription, music technology, deep learning, music information retrieval, transcribe into tabs & chords, chordify, music renditions, songsterr, reverbnation, tabulature, bollywood chords, ultimate guitar, yousician, guitar lessons, acoustic guitar, electric guitar, guitar tuner, 911 tabs