Guitar Tabs for Smell Like Teen Spirit Solo

(/) Slide Up  (\) Slide Down  (h) Hammer On  (p) Pull Off  (b) Bend (r) Release (v) Vibrato (x) Muted

Tabs & Chords
BPM : 117.0
Check Track 2 for Chord Positions 

    F           A#    G#    C#       F        A#          C#       F           G#    C#       A# 
E|--------------------------------------------------------------------0--------0-----------------
B|--------------------------------------------------------14-------------------------------------
G|-----------------------------------------------------------------------------------13----------
D|--------15----15----13-------------------------15-15-------------15----17-------------------15-
A|--15----------------------16-16----15-15----13-------------16-------------------------16-------
E|-----------------------------------------------------------------------------------------------

       G#    C#          Fm    A#    G#             C#             Fm    A#                G# 
E|--------0-----------------------------------------------------------------------------------
B|--------------------------------------------------16-16-14-13----14-13----------------------
G|-----15-------13-13----------13-13-13-13-13-14-------------------------13-13-------13-------
D|-----------------------17----------------------------------------------------17-17-------13-
A|-----------16-------------------------------------------------------------------------------
E|--------------------------------------------------------------------------------------------

             C#                   Fm             C#                                  Fm       
E|--------------------------------------16----------------13-13-13----------------------------
B|--------------------------------16-------------13-14-16----------14-13----13-14-13-13-13-13-
G|--------13-15-16-15-13-------------------13----------------------------15-------------------
D|--15-15----------------17-17----------------------------------------------------------------
A|--------------------------------------------------------------------------------------------
E|--------------------------------------------------------------------------------------------

                
E|--------------
B|--14-------13-
G|-----13-16----
D|--------------
A|--------------
E|--------------

Guitar Tabs for Smell Like Teen Spirit Solo






    F           A#    G#    C#       F        A#          C#       F           G#    C#       A# 
E|--1-----------1-----4-----4--------1--------1-----------4--------1-----------4-----4--------1--
B|--1-----------3-----4-----6--------1--------3-----------6--------1-----------4-----6--------3--
G|--2-----------3-----5-----6--------2--------3-----------6--------2-----------5-----6--------3--
D|--3-----------3-----6-----6--------3--------3-----------6--------3-----------6-----6--------3--
A|--3-----------1-----6-----4--------3--------1-----------4--------3-----------6-----4--------1--
E|--1-----------------4--------------1-----------------------------1-----------4-----------------

       G#    C#          Fm    A#    G#             C#             Fm    A#                G# 
E|-----4-----4-----------1-----1-----4--------------4--------------1-----1-----------------4--
B|-----4-----6-----------1-----3-----4--------------6--------------1-----3-----------------4--
G|-----5-----6-----------1-----3-----5--------------6--------------1-----3-----------------5--
D|-----6-----6-----------3-----3-----6--------------6--------------3-----3-----------------6--
A|-----6-----4-----------3-----1-----6--------------4--------------3-----1-----------------6--
E|-----4-----------------1-----------4-----------------------------1-----------------------4--

             C#                   Fm             C#                                  Fm       
E|-----------4--------------------1--------------4-----------------------------------1--------
B|-----------6--------------------1--------------6-----------------------------------1--------
G|-----------6--------------------1--------------6-----------------------------------1--------
D|-----------6--------------------3--------------6-----------------------------------3--------
A|-----------4--------------------3--------------4-----------------------------------3--------
E|--------------------------------1--------------------------------------------------1--------

                
E|--------------
B|--------------
G|--------------
D|--------------
A|--------------
E|--------------

tabs and chords, guitar tabs, music transcription, music technology, deep learning, music information retrieval, transcribe into tabs & chords, chordify, music renditions, songsterr, reverbnation, tabulature, bollywood chords, ultimate guitar, yousician, guitar lessons, acoustic guitar, electric guitar, guitar tuner, 911 tabs