Guitar Tabs for Slow

Slow - TKS

Intro
E|--------------------------------------------------
B|--------------------------------------------------
G|--------------------4-----------2-----------5-----
D|--------5--------4-----4-----2-----2-----5-----5--
A|-----5-----5--2-----------0-----------3-----------
E|--3-----------------------------------------------

E|--------------------------------------------------
B|--------------------------------------------------
G|--------------------4-----------5-----------7-----
D|--------5--------4-----4-----5-----5-----7-----7--
A|-----5-----5--2-----------3-----------5-----------
E|--3-----------------------------------------------
[Repeat x3]

Verse
E|--------------------------------------------------
B|--------------------------------------------------
G|--------------4--4--4--4--2--2--2--2--5--5--5--5--
D|--5--5--5--5--4--4--4--4--2--2--2--2--5--5--5--5--
A|--5--5--5--5--2--2--2--2--0--0--0--0--3--3--3--3--
E|--3--3--3--3--------------------------------------

E|--------------------------------------------------||
B|--------------------------------------------------
G|--------------4--4--4--4--5--5--5--5--7--7--7--7--
D|--5--5--5--5--4--4--4--4--5--5--5--5--7--7--7--7--
A|--5--5--5--5--2--2--2--2--3--3--3--3--5--5--5--5--
E|--3--3--3--3--------------------------------------
[Repeat x2]

Chorus
Distortion 
E|--------------------------------------------------------------------------------------------------
B|--------------------------------------------------------------------------------------------------
G|--------------------------------------------------7--7--7--7--7--7--7--7--2--2--2--2--2--2--2--2--
D|--2--2--2--2--2--2--2--2--5--5--5--5--5--5--5--5--7--7--7--7--7--7--7--7--2--2--2--2--2--2--2--2--
A|--2--2--2--2--2--2--2--2--5--5--5--5--5--5--5--5--5--5--5--5--5--5--5--5--0--0--0--0--0--0--0--0--
E|--0--0--0--0--0--0--0--0--3--3--3--3--3--3--3--3--------------------------------------------------
[Repeat x2]

E|--------------------------------------------------------------------------------------------------
B|--------------------------------------------------------------------------------------------------
G|--------------------------------------------------7--7--7--7--7--7--7--7--4--4--4--4--4--4--4--4--
D|--2--2--2--2--2--2--2--2--5--5--5--5--5--5--5--5--7--7--7--7--7--7--7--7--4--4--4--4--4--4--4--4--
A|--2--2--2--2--2--2--2--2--5--5--5--5--5--5--5--5--5--5--5--5--5--5--5--5--2--2--2--2--2--2--2--2--
E|--0--0--0--0--0--0--0--0--3--3--3--3--3--3--3--3--------------------------------------------------

Chorus
Clean

E|--------------------------------------------------------------------------------------------------
B|--------------------------------------------------------------------------------------------------
G|--------9-----------9-----------12----------12----------7-----------7-----------2-----------2-----
D|-----9-----9-----9-----9-----12----12----12----12----7-----7-----7-----7-----2-----2-----2-----2--
A|--7-----------7-----------10----------10----------5-----------5-----------0-----------0-----------
E|--------------------------------------------------------------------------------------------------
[Repeat x2]


E|--------------------------------------------------------------------------------------------------
B|--------------------------------------------------------------------------------------------------
G|--------9-----------9-----------12----------12----------7-----------7-----------4-----------4--4--
D|-----9-----9-----9-----9-----12----12----12----12----7-----7-----7-----7-----4-----4-----4--------
A|--7-----------7-----------10----------10----------5-----------5-----------2-----------2-----------
E|--------------------------------------------------------------------------------------------------

Repeat clean chorus part for bridge

Repeat chorus x2 for final chorus
tabs and chords, guitar tabs, music transcription, music technology, deep learning, music information retrieval, transcribe into tabs & chords, chordify, music renditions, songsterr, reverbnation, tabulature, bollywood chords, ultimate guitar, yousician, guitar lessons, acoustic guitar, electric guitar, guitar tuner, 911 tabs